Karma - Lacrimi

  • Contribuție:  anonime
Intro:
Chitara 1: C G Am F

Chitara 2:
e||-------0-1-2/3-----10/12---10-------10b12--8-----10b12--8------------|
B||-0-1-3------------------------8---------------------------10---8-10--|
G||---------------------------------------------------------------------|
D||---------------------------------------------------------------------|
A||---------------------------------------------------------------------|
E||---------------------------------------------------------------------|

  |--8----10/12---10------10b12--8-----10b12--8-------------------------|
  |------------------8--------------------------10---8-10---------------|
  |---------------------------------------------------------------------|
  |---------------------------------------------------------------------|
  |---------------------------------------------------------------------|
  |---------------------------------------------------------------------|


C	        G
Clipa de clipa renasc
Am             F          C            G
Ca o serie-nlantuita .....In pat
C                G
Clipa de clipa ma pierd
Am              F            C            G
Ca o umbra descatusata.......De tot

Bridge:
F   C      
Sau privesc, sau privesc
           G
Mereu spre cer
F    C
Sau privesc, sau privesc
            G
Mereu spre cer

Refren:
Lacrimi, lacrimi
Si vise naruite in priviri
Lacrimi, lacrimi
Si vise naruite in priviri
Mai avem,....ooohhh....lacrimi mai avem

2.Noapte de noapte iubesc
Tot mai putin lumina din stele....si rad
Noapte de noapte adorm
Tot cu gandul la revarsare.....din tine

Bridge

Refren

3.Zambet de zambet cuprins
In imensitatea de langa mine.....Si ?????
Drumuri ce nu le mai stiu
Ne asteapta virgine inca....cu pasii grabiti

Bridge

Refren
  • catalins
    6 iulie 2010 10:11
    Da-mi, te rog, o idee...cam pe unde-as putea-o gasi s-o ascult ?
2412975b0a43862712840693e9178fc1