Karma - Poate

  • (1 voturi)
  • Contribuție:  adimg
Intro:

         Cadd9                      Em7
----0---0---------3-----------0-----------3------
-3----3---3-----3---3-----------3-------3---3----
--------------0-------3-----0-----0---0-------3--
-------------------------------------------------
-3----------3-------------2---------2------------
-------------------------------------------------

         Am7                  F             G
---0---0------3-0---0---------1------------3-1-0-
-----1---1-----------1----------1------0h1-------
-----------2------2---------2-----2--------------
-------------------------------------------------
-0------------0-0---------3----------3-----------
-------------------------------------------------

 C
Ma privesti mereu
Em                   F                   G
Parca n-ai vedea ca sunt tot eu, parca n-ai vedea
 C
Ma atingi mereu
Em                  F                  G        
Parca nu ai sti ca sunt tot eu, parca nu ai sti
F                  G
Mana luneca prin plete
F                  G
Se opreste lin pe sanul tau.

   C               
Vreau sa iti vorbesc
Em                F                G
Dar cuvintele mi se opresc, parca se topesc
F               G
Privirea ta m-apasa
F                     G
Si patrunzi incet in gandul meu.


Refren: 
              F
Poate totusi nu mai sunt tot eu
                Am
Poate vreau sa pleci din gandul meu
               F             C           G  G7
Poate te-am iubit prea mult sa te pot uita
           F
Poate nepasarea m-a cuprins
            Am
Poate ca destinul ne-a invins
              F          C             G
Poate am sa plec zambind eu din viata ta.

 C
Patul ravasit
Em                  F                G
Trupul tau e gol si adormit, chipul fericit
 C
Luneca-n fior
Em                F               G
Raza lunii peste sanul gol si zambesti usor
F                          G
Nu stiu cum sa-ti spun ca voi pleca
F                        G
Cum sa-ti spun ca nu mai esti a mea.

Refren


La sfarsitul ultimului refren, "din viata ta" e pe F, iar finalul e pe C.
Enjoy! :)
  • VICTOR
    4 decembrie 2011 17:55
    nu cred ca sunt acordurile originale dar e bine transpusa:). Ai 5!
d454cea6cdb0e54ed933b6eb03837bcb