Karma - Vantul

  • (1 voturi)
  • Contribuție:  vasib
  • Ultima actualizare: 08.07.2014
Intro1:

  Am  j  jsj sss sjs    Dm j  jsj sss sjs
e|-----------3-3-----------1--111-313-111------|
B|----1--111-111-111-------3--333-333-333------|
G|----2--222-222-222-------2--222-222-222------|
D|----2--222-222-222---------------------------|
A|---------------------------------------------|
E|---------------------------------------------|

  F  j  jsj sss sjs     E  j  jsj sss sjs 
e|---1--111-313-111----------------------------|
B|---1--111-111-111---------------333----------|
G|---2--222-222-222--------1--111-111-111------|
D|---3--333-xxx-333--------2--222-222-222------|
A|---3--333-333-333--------2--222-222-222------|
E|---------------------------------------------|

Intro2:

  Am j  J&pm  sss sjs   F j  J&pm sss sjs 
e|-------x------3---------1--1x---113-111------|
B|---1--1x----111-111-----1--1x---111-111------|
G|---2--2x----222-222-----2--2x---222-222------|
D|---2--2x----222-222-----3--3x---xxx-333------|
A|-------x----------------3--3x---333-333------|
E|-------x--------------------x----------------|

  Dm j  J&pm sss sjs    E  j  J&pm sss sjs
e|---1--1x---113-111-----------x---------------|
B|---3--3x---333-333-----------x---333---------|
G|---2--2x---222-222-------1--1x---111-111-----|
D|-------x-----------------2--2x---222-222-----|
A|-------x-----------------2--2x---222-222-----|
E|-------x-------------------------------------|
	
Am	              F	 
Imi apune zambetul pe buzele tale 
Dm	            E	        E7
De cand te-astept iubita mea sa vii 
Am	                   F	 
Si ochiul stang ti-l darui ca pe o floare 
Dm	           E	        Am	
Cu ochiul drept ca sa te pot privi. 


Refren:
Am	                Dm	
Vantu-i vant intre cer 	si pamant 
   E	                     Am	
Ce lucii amintiri imi par ca doi copii plangand 
Am	              Dm	
Vantu-i vant si dragostea e-n noi 
   E	                Am	
Ce vant ne bate pe-aman	doi. (Intro2) 


De umeri ma cuprinde inserarea
De vise ma cuprinde chipul tau
Si ma asteapta-n zare muntele si marea
Iar eu te-astept pe tine visul meu.

Te rasfiri razleata tu antica lumina
Ca si exodul vechilor evrei
Si-ai vrea ca vesnicia ta sa tina
Cat vesnicia ce-i hranea pe zei.

(Refren)
e77b2d4d5b9a149de681e6bf9296ba94