Lena Miclaus - De la-nceput noi ne-am jurat (acorduri + solo)

A#                     Cm
De la-nceput noi ne-am jurat
       D#       A#
Iubire cu adevarat
         A#          Cm
Si pentru ca ne potrivim
       D#        A#
Destinele ni le unim.
A#                     Cm
De la-nceput noi ne-am jurat
       D#       A#
Iubire cu adevarat
         A#          Cm
Si pentru ca ne potrivim
       D#        A#
Destinele ni le unim.

R:
A#              Cm 
Esti mirele meu sunt mireasa ta
D#              F           A#
Si te voi iubi toata viata mea.
A#              Cm
Esti mirele meu sunt mireasa ta
D#              F           A#
Si te voi iubi toata viata mea.

Traiesc un vis adevarat
Tu viata-n bine mi-ai schimbat
Ti-o spun din toata inima
Ca tu esti jumatatea mea.
Traiesc un vis adevarat
Tu viata-n bine mi-ai schimbat
Ti-o spun din toata inima
Ca tu esti jumatatea mea.

R:
Esti mirele meu sunt mireasa ta
Si te voi iubi toata viata mea.
Esti mirele meu sunt mireasa ta
Si te voi iubi toata viata mea.

De azi cu tine peste tot
De astazi numele ti-l port
Mi-esti drag esti tot ce mi-am dorit
Esti visul ce mi s-a implinit.
De azi cu tine peste tot
De astazi numele ti-l port
Mi-esti drag esti tot ce mi-am dorit
Esti visul ce mi s-a implinit.

R:
Esti mirele meu sunt mireasa ta
Si te voi iubi toata viata mea.
Esti mirele meu sunt mireasa ta
Si te voi iubi toata viata mea.

R:
Esti mirele meu sunt mireasa ta
Si te voi iubi toata viata mea.
Esti mirele meu sunt mireasa ta
Si te voi iubi toata viata mea.

solo:

e --------------------------------------------------------------------------------
B ---11-11-10-11-----11-11-10-11------11-11-10------------------------------------
G   --------------7----------------8----------------12-10-10-12-10----------------
D --------------------------------------------------------------------13-12-------
A --------------------------------------------------------------------------------
E --------------------------------------------------------------------------------

e -------------------------------------------------10--------------10-------------
B --11-11-10-11-----11-11-10-11------11-11-10-11------13--------------13-11-------
G ---------------7----------------8----------------------------10-12--------------
D --------------------------------------------------------------------------------
A --------------------------------------------------------------------------------
E --------------------------------------------------------------------------------