Luna Amară - Albastru

  • (10 voturi)
  • Contribuție:  anonim342
Piesa are instrumental complex (distors, 2 voci, Mihnea la trompeta).
Cam asa ar suna o versiune acustica:


intro
E||-------------0-------------------0----------------------
B||------3--------3--------3--------------3----------------
G||---------2-------2--------2--------------2--------------
D||---0---------------0------------------------------------
A||--------------------------------------------------------
E||--------------------------------------------------------


E||-------------0-----------------0------------------------
B||---------------0-------0---------0----------------------
G||-------2---------2-------2---------2--------------------
D||-----4-------------4------------------------------------
A||---4----------------------------------------------------
E||--------------------------------------------------------


   D
  De azi n-am sa mai fac nimic
   F#m                    D
  De jos nu vreau sa ma ridic
   D                    F#m
  Stau inchis in capul meu
   F#m        
  E ce-am ales
              G
  E ce vreau eu
   G                  Gm
  Am ales sa nu mai cred
                           D
  Nimic din ce ma lasi sa vad
......


D   x00232 (se poate folosi si x00230)
F#m 244222
G   355433
Gm  355333
6Ld5REUUAAAAAA1PBEDya2BDGnf5rYKeKnmYm4Cz
cfd7ea0f12b6ed10a5e2ea22198e3dde