Luna Amară - Albastru


Deci acolo m-am grabit si in loc de acordul Dsus2 am pus D.
  Mai jos este versiunea corectata:
   
  Intro:
   
       Dsus2         F#m
E||---------0--------------0-----|---------0-------------0-----|
B||-----3-----3--------3-----3---|-----------2---------2---2---|
G||-------2-----2----2---2-----2-|-------2-----2-------------2-|
D||--0------------0--------------|-----4------------4----------|
A||------------------------------|---------------4-------------|
E||------------------------------|--2--------------------------|
  
  Dsus2              F#m
---------0--------------0-----|---------0-------------0-----||
-----3-----3--------3-----3---|-----------2---------2---2---||
-------2-----2----2---2-----2-|-------2-----2-------------2-||
--0------------0--------------|-----4------------4----------||
------------------------------|---------------4-------------||
------------------------------|--2--------------------------||
  
Dsus2
de azi n-am sa mai fac nimic
  F#m
de jos nu vreau sa ma ridic
  Dsus2
stau inchis in capul meu
  F#m
e ce-am ales e ce vreau eu
  G(III)
am ales sa nu mai cred
  Gm
nimic din ce ma lasi sa vad
  Dsus2
nimic din uniforma ta
  F#m
din pumnii tai din legea ta
  G
bataia ta frustrarea ta
  Gm   Dsus2
se sparg acum de fata mea...
  
Dsus2  ->  F#m  ->  Dsus2   ->  F#m
   
   
  
in capul tau nu sunt decat
decat un alt proces-verbal si-atat
ma urmaresti dar nu ma vezi
m-auzi vorbind dar nu ma crezi
nu cred nici eu ca arma ta
iti da vreun drept asupra mea
si tot ce fac e ca sa ai
un alt motiv mai bun sa dai
un sens la tot nimicul tau
esti doar un om mai slab mai rau... 
   
   
           E A D G B e
         ___________
  Dsus2    x x 0 2 3 0
F#m      2 4 4 2 2 2
G(III)   3 5 5 4 3 3
Gm       3 5 5 3 3 3
  • Ioana21
    3 noiembrie 2012 00:46
    Ma poate ajuta cineva cu partiturile de la trompeta? :)