Luna Amară - Antidot

  • (1 voturi)
  • Contribuție:  ngwdaniel
  • Ultima actualizare: 13.09.2012
Luna Amara - Antidot

Chitara 1 (Bass) DADG(BE)
Chitara 2 DADGBE (Drop D)
-----------------------------------------------------------------------
~ sustain
^ bend
. palm muted
/ slide up
\ slide down
-----------------------------------------------------------------------


Chitara 1 - tine acelasi ritm pe tot parcursul piesei

|----------------------|
|----------------------|
|----------------------|
|----------------------|
|----------3~----------|
|---0---3-----3--2--3--|

Chitara 2 - Vers

|-------------------------|
|---3--5-5-5----8--5-5-5--|
|---3--5-5-5----8--5-5-5--|
|---2--4-4-4----7--4-4-4--|
|-------------------------|
|-------------------------|

Chitara 2 (cu distors) - Riff

|----------|                  |-------------------|
|----------| (Bate tare toba) |-------------------|
|----------|         ||       |-------------------|
|--8----7--|  (Ma omor încet) |--0-0-0-3---3-2-3--|
|--8-x8-7--|                  |--0-0-0-3---3-2-3--|
|--8----7--|                  |--0-0-0-3---3-2-3--|
                                   . .

Chitara 2 (cu distors) - Solo Trompeta
  
  2:08                                               2:21
|-------------------------------------------------|
|----------------------10~~~~----10--11-10--------|
|--9~~~~11-12~~~~11-12--------12-----------12-9~--|
|-------------------------------------------------|
|-------------------------------------------------|
|-------------------------------------------------|

  2:21
|------------------------------------------------------------------|
|--11-10----10--11-10----------------------------------------------|
|--------12-----------12--10-8-10--11-10-8-10-11--10-11-10-8-10----|
|------------------------------------------------------------------|
|------------------------------------------------------------------|
|------------------------------------------------------------------|


  2:28                                2:30
|------------------------------------------------------------------------|
|-------------------------12-10-12-13--13^-13^-13^-13^-13^-13^-13^-31\---|
|------------8-10-10/11--------------------------------------------------|
|-------8-10-------------------------------------------------------------|
|--8-10------------------------------------------------------------------|
|------------------------------------------------------------------------|
6Ld5REUUAAAAAA1PBEDya2BDGnf5rYKeKnmYm4Cz
3cfaae7c8ab276d9400e3683de916727