Luna Amară - Downtown Jesus

Nu e ca originalul, dar se poate de cantat.

Intro:

     C                             Bm

E||--0------0-----3------0------|---------------2------2h-3-2-----|
B||-----1-----1------1------1---|--3------3--------3----------3---|
G||-------0-----0------0------0-|-----4-----4--------4----------4-|
D||-----------------------------|-------4-----4-------------------|
A||--3--------------------------|--2------------------------------|
E||-----------------------------|---------------------------------|



  C                              Bm
--0------0-----3------0-------|-----------2----|
-----1-----1------1------1----|--3--3-----3----|
-------0-----0------0------0--|--4--4----------|
------------------------------|----------------|
--3---------------------------|--2--2-----2----|
------------------------------|----------------|




Versuri:

  C
--0------0-----3------0------|
-----1-----1------1------1---|
-------0-----0------0------0-|
-----------------------------|
--3--------------------------|
-----------------------------|
  It’s fortune that we play


  Bm                                C
---------------2------2h-3-2-----|--0------0-----3------0-------|
--3------3--------3----------3---|-----1-----1------1------1----|
-----4-----4--------4----------4-|-------0-----0------0------0--|
-------4-----4-------------------|------------------------------|
--2------------------------------|--3---------------------------|
---------------------------------|------------------------------|
 Matches wouldn’t light               Couldn’t help no jesus


  Bm                                C
---------------2------2h-3-2-----|--0------0-----3------0------|
--3------3--------3----------3---|-----1-----1------1------1---|
-----4-----4--------4----------4-|-------0-----0------0------0-|
-------4-----4-------------------|-----------------------------|
--2------------------------------|--3--------------------------|
---------------------------------|-----------------------------|
 Couldn’t save no child              Not the one inside of me

     
  Bm                                C
---------------2------2h-3-2-----|--0------0-----3------0-------|
--3------3--------3----------3---|-----1-----1------1------1----|
-----4-----4--------4----------4-|-------0-----0------0------0--|
-------4-----4-------------------|------------------------------|
--2------------------------------|--3---------------------------|
---------------------------------|------------------------------|
 And not the one inside                of you        that


  Bm
-----------2----||
--3--3-----3----||
--4--4----------||
----------------||
--2--2----------||
----------------||
  day.




Refren x2:

C(III)               D(V)           Em(VII)  
Back to my room and back inside my nest 
       Em(VII)         C(III)
It’s not my day today                   
         D(V)  Em                        
It’s obvious I don’t belong.           


 C
Plastic men have sold

  Bm
Now all my youth is sore and old

  C
“there’s no morning view”

  Bm
These nights are empty and so are you

 C
There’s nothing you could do

 Bm                    C
Bruised up jesus for all the shame in you,

  Bm
for all the shame in you.




Refren


Refren II

C     D    Em
And I feel downtown jesus growing orchids
C   D  Em
Out of naked wounds
C     D    Em
And I feel you and i
C                  D               Em
Selling friendshïp for an ounce of gold.



         E A D G B e
         ___________
C        x 3 2 0 1 0
D        x x 0 2 3 2
Bm       x 2 4 4 3 2
C(III)   X 3 5 5 X X
D(V)     X 5 7 7 X X
Em(VII)  X 7 9 9 X X
Em       0 2 2 0 0 0