Luna Amară - In Cercuri

Astept sugestii de imbuntatire...stiu ca cel putin ritmul nu tocmai este ca in original.

******************
Chitară electrică
******************


E |-------------------------------------||-----------------------------------|||
B |-------------------------------------||-----------------------------------|||
G |-------------------------------------||o---------------------------------o|||
D |-------------------------------------||o---------------------------------o|||
A |-------------------------------------||-3--0M-0M-0M-3-----3--0M----3------|||
D |-------------------------------------||-3--0M-0M-0M-3-----3--0M----3------|||


-----------------------------------|||------------------------------------|
-----------------------------------|||------------------------------------|
o---------------------------------o|||o-----------------------------------|
o---------------------------------o|||o-----------------------------------|
-----------------------------------|||-0M-6M-6M-6M-6M----5M-5M----3-------|
-----------------------------------|||-0M-6M-6M-6M-6M----5M-5M----3-------|


-------------------------------------|------------------------------------|||
-------------------------------------|------------------------------------|||
-------------------------------------|-----------------------------------o|||
-------------------------------------|-----------------------------------o|||
--3--0M-0M-0M-3-----3--0M----3-------|--3--0M-0M-0M-3-----3--0M----3------|||
--3--0M-0M-0M-3-----3--0M----3-------|--3--0M-0M-0M-3-----3--0M----3------|||


------------------------------------|-------------------------------------|
------------------------------------|-------------------------------------|
o-----------------------------------|-------------------------------------|
o-----------------------------------|-------------------------------------|
-------8--------8--8-----6----------|--6-----8--------8--8-----6----------|
-------8--------8--8-----6----------|--6-----8--------8--8-----6----------|


-------------------------------------|------------------------------------||
-------------------------------------|------------------------------------||
-------------------------------------|-----------------------------------o||
-------------------------------------|-----------------------------------o||
--6-----8--------8--8-----10---------|--10-10----11-------11-11----13-----||
--6-----8--------8--8-----10---------|--10-10----11-------11-11----13-----||


-------------------------------------||
-------------------------------------||
-------------------------------------||
-------------------------------------||
-------------------------------------||
-------------------------------------||

******************
Bass
******************

G |-------------------------------------||-----------------------------------|||
D |-------------------------------------||o---------------------------------o|||
A |-------------------------------------||o---------------------------------o|||
D |-------------------------------------||-3--0--0--0--3-----3--0-----3------|||


-----------------------------------|||------------------------------------|
o---------------------------------o|||o-----------------------------------|
o---------------------------------o|||o-----------------------------------|
-3--0--0--0--3-----3--0-----3------|||-0--6--6--6--6-----5--5-----3-------|


-------------------------------------|------------------------------------|||
-------------------------------------|-----------------------------------o|||
-------------------------------------|-----------------------------------o|||
--3--0--0--0--3-----3--0-----3-------|--3--0--0--0--3-----3--0-----3------|||


------------------------------------|-------------------------------------|
o-----------------------------------|-------------------------------------|
o-----------------------------------|-------------------------------------|
-------8--------8--8-----6----------|--6-----8--------8--8-----6----------|


-------------------------------------|------------------------------------||
-------------------------------------|-----------------------------------o||
-------------------------------------|-----------------------------------o||
--6-----8--------8--8-----10---------|--10----11-------11-11----13--------||


-------------------------------------||
-------------------------------------||
-------------------------------------||
-------------------------------------||