Luna Amară - Into Another

Intro:

~ - vibrato
/ - slide
h- hammer on

e|--------------------------------|
B|--7-----7-----------------------|
G|----6~----6-5-6~--4-2~--2-1-2~--|  (x2)
D|--------------------------------|
A|--------------------------------|
E|--------------------------------|

A     F#m            A
Into another I will drown
A       E               F#m
Safely hidden from your frown
          A
Fill the holes in me
     F#m          A
With comfortable lies
        F#m            E          A
Just let go of me, let go of me inside

Intro

A        F#m             A
Blending colors of your grief
A        E               F#m
Staining years with disbelief
A                      F#m      A
Haven't found a path so I just run
F#m    A
Into another wait to drown


A     F#m
Drown into you, my love
F#m
Like I always do
A    F#m
Drown into you
               A
It's all i'll ever do


Intro

A           E                   F#m
Leaving has closed down all our doors
F#m                        A
Such strangers left with nothing to hope for


A     F#m
Drown into you, my love
F#m
Like I always do
A    F#m
Drown into you
F#m            A
It's all i'll ever do
E            A
All excuses got me nothing
E           A     A#
All abuses got me down 

Solo

e|------5-7-7/---5-7--8-7-5-----------------------5-7-9--12/9-8--7-5----|
B|--7~----------------------7~--5-7-7-5-7-7---5h7--------------------7--|
G|----------------------------------------------------------------------|
D|----------------------------------------------------------------------|
A|----------------------------------------------------------------------|
E|----------------------------------------------------------------------|

e|----5---12--10-9-5--4-5-5-4-5-5--5---17--16-14-12--14--|
B|--5----------------------------------------------------|
G|-------------------------------------------------------|
D|-------------------------------------------------------|
A|-------------------------------------------------------|
E|-------------------------------------------------------|

e|--7--5-7-7h8-7-5--------7--5-7-7h8-7-5---------|
B|-----------------6--5~-----------------6--5-3--|
G|-----------------------------------------------|
D|-----------------------------------------------|
A|-----------------------------------------------|
E|-----------------------------------------------|
  • noshit
    28 iunie 2011 19:14
    nu stiu despre voi, dar pentru mine e destul de clar ca in strofa e D peste tot, in loc de A ?!
  • cyberbob
    13 decembrie 2010 04:22
    sigur nu e E normal in rest e ok
  • Ionutz
    21 iulie 2010 10:46
    foarte tare melodia! si foarte bine transpusa...felicitari;)