Luna Amară - Loc lipsa

  • (6 voturi)
  • Contribuție:  dudutsz
Rog pe cineva care stie sa transpuna tabu uramator in Guitar Pro.

Versuri si intro(se repeta) :

E||-----------0-------------0-----------------0-------------0-------
B||-------------3-------------3-----------------3-------------3-----
G||-------4--------------4------4---------4--------------4------4---
D||---2---------------2---------------2---------------2-------------
A||-----------------------------------------------------------------
E||-----------------------------------------------------------------


E||---------------------------------------------0-------------------
B||-------3----------3--------------------------0-------------------
G||---------5-----------5-------------4----2----2------------------
D||-----5---------5-------3-------2---------------------------------
A||---3---------3--------------0------------------------------------
E||-----------------------------------------------------------------


Refren(se canta cu coarda 6(Mi-gros) cu un ton mai jos) :
(Daca nu vreti sa schimbati acordajul tineti cu un ton mai sus decat pe tab coarda 6)
E||----------------------------------------------------------------
B||----------------------------------------------------------------
G||----------------------------------------------------------------
D||---2---2---2---0---2---2---2---2---2---2---0---2---2---2---0----
A||---2---2---2---0---2---2---2---2---2---2---0---2---2---2---0----
E||---2---2---2---0---2---2---2---2---2---2---0---2---2---2---0----


E||----------------------------------------------------------------
B||----------------------------------------------------------------
G||----------------------------------------------------------------
D||---2---2---2----5--5--5--4--5--5--5-----------------------------
A||---2---2---2----3--3--3--2--3--3--3--7--7--7--5--7--------------
E||---2---2---2-------------------------7--7--7--5--7--------------

Versurile le gasiti voi.....