Luna Amară - Mara 2008

  • (4 voturi)
  • Contribuție:  TudorV
  • Ultima actualizare: 05.06.2009
Pt inceput trebuie sa va spun ca aceasta melodie se canta in 2 chitari: 
una acordata DADGBe (adica drop D, chitara electrica a lui Mihnea) si una 
acordata EADGBe (adica standard, chitara acustica a lui Nick). 


Intro:
Chitara1:
e|--------------------------------|
B|---3--1-------------3--1-----1--|
G|---------3--2--2----------3-----|
D|--3--3--3--3--3----3--3--3--3---|
A|------------------1--1--1--1----|
D|-0--0--0--0--0--0---------------|
   <------Dm------><-----A#----->
De 2 ori fara chitara2, de 2 ori cu chitara2

Chitara2(EADGBe): Dm, A#

Vers:
Chitara1:
e|---------------|
B|-----1------1--|
G|---------------|
D|---3------3----|
A|--------1------|
D|-0-------------|
   Dm     A#
Chitara2:
Dm                   A# 
Cu tot ce n-ai sa-mi dai,
Dm                   A#      
Si tot ce n-am sa-ti spun...am pierdut,
Dm          A#        
N-am crezut ca vei pleca uitand
Dm          A#
Nori de fum arzand.

Refren:
Chitara1:                                
e|------------------------------------------------|
B|---1--1-1--1--1-1--1--1-1--1--1-1---------------|
G|----------------------------------------------1-|
D|--2--2----3--3----3--3----3--3---------------0--|
A|-0--0--0-1--1--1----------------------------2---|
D|-----------------0--0--0-0--0--0----------------|
   <--Am--><--A#--><------Dm------>          Bdim
(la "amara lumea mea" nu cantati Dm ci Bdim)
 
Chitara2:
Am   A#            Dm
  Si n-ai sa fii a mea, 
Am  A#             Dm     
  O zi macar de-ai sta cu mine-n gand
Am   A#            Dm
  Si unde vei pleca din lumea mea,
Am A#         Bdim
  Amara lumea mea.

Repetati intro cu ambele chitari.

Vers:

Si tot ce n-am sa-ti dau
E-n tot ce n-am sa iau inapoi
N-am stiu cum pasul tau e greu
Pasare rece pe umarul meu

Refren:

Si n-ai sa fii a mea, 
O zi macar de-ai sta cu mine-n gand
Si unde vei pleca din lumea mea,
Amara lumea mea.

Bridge:
Chitara1 sta degeaba (gandindu-se la nemurirea sufletelor) 

Chitara2: 
F                                                Am                 
Si ma faci sa plang, sa rad ca si cand la tine-n gand
A#
As fi eu,
F                                    Am
Dar tu pari a altora niciodata doar a mea, 
A#
A nimanui.

Refren (chitara1 a terminat de gandit la nemurirea sufletelor):

Si n-ai sa fii a mea, 
O zi macar de-ai sta cu mine-n gand
Si unde vei pleca din lumea mea,
Amara lumea mea.

Bdim: x20101

gata! asta e!!!