Luna Amară - Oameni noi

  • (2 voturi)
  • Contribuție:  lukkes
  • Ultima actualizare: 26.12.2015
//Artist: Luna Amara 
//Song: Oameni noi 
//Album: Pietre in alb(2011) 
 
Intro:
Guitar 1:
e|-------------------------------------------------------------------|
B|-------------------------------------------------------------------|
G|-------------------------------------------------------------------|
D|------7-------7-------7-------7-------7-------7-------7----------7-|
A|---10------10------10------10------10------10------10------10------|
D|-0-------8-------0-------8-------0-------8-------0-------8---------|
 
 
Verse:
Priveşte / Viermii ce-i hrănim  / Vorbeşte / Despre cum trăim
Chinuiţi / Umiliţi / Rece şi-anonim
Guitar 1:
e|-------------------------------------------------------------------|
B|-------------------------------------------------------------------|
G|-------------------------------------------------------------------|
D|------7-------7-------7-------7-------7-------7-------7-------7----|
A|---10------10------10------10------10------10------10------10------|
D|-0-------8-------0-------8-------0-------8-------0-------8---------|
 
 
Guitar 1:
e|-------------------------------------------------------------------|
B|-------------------------------------------------------------------|
G|-------------------------------------------------------------------|
D|------7-------7-------7----------7---------------------------------|
A|---10------10------10------10--------------------------------------|
D|-0-------8-------0-------8-----------------------------------------|
 |
Guitar 2:
e|-------------------------------------------------------------------|
B|-----10------10------10----------10--------------------------------|
G|---12------12------12------12--------------------------------------|
D|-12------10------12------10----------------------------------------|
A|-------------------------------------------------------------------|
D|-------------------------------------------------------------------|
 
 
Minciuna / E tot ce mai avem / Minciuna / E apa ce o bem
Te iubim / Te slavim / Comandant suprem
Guitar 1:
e|-------------------------------------------------------------------|
B|-------------------------------------------------------------------|
G|-------------------------------------------------------------------|
D|------7-------7-------7-------7-------7-------7-------7-------7----|
A|---10------10------10------10------10------10------10------10------|
D|-0-------8-------0-------8-------0-------8-------0-------8---------|
 |
Guitar 2:
e|-------------------------------------------------------------------|
B|-----10------10------10------10------10------10------10------10----|
G|---12------12------12------12------12------12------12------12------|
D|-12------10------12------10------12------10------12------10--------|
A|-------------------------------------------------------------------|
D|-------------------------------------------------------------------|
 
 
Guitar 1:
e|-------------------------------------------------------------------|
B|-------------------------------------------------------------------|
G|--------------9-----------------------------9----------------------|
D|-----10------10------7------5------10------10------7------5--------|
A|---8-------7-------3------3------8-------7-------3------3----------|
D|-8-------7-------3------2------8-------7-------3------2------------|
 |
Guitar 2:
e|-------------------------------------------------------------------|
B|-----10------10------5----5-3------10------10------5----5-3--------|
G|---10------9-------5-------------10------9-------5-----------------|
D|-8-------7-------3------2------8-------7-------3------2------------|
A|-------------------------------------------------------------------|
D|-------------------------------------------------------------------|
 
 
Cravate / Peste univers / De toate / Pentru omul şters
Pentru voi / Drumuri "noi" / Pe care-aţi mai mers
Guitar 1:
e|-------------------------------------------------------------------|
B|-------------------------------------------------------------------|
G|-------------------------------------------------------------------|
D|------7-------7-------7-------7-------7-------7-------7-------7----|
A|---10------10------10------10------10------10------10------10------|
D|-0-------8-------0-------8-------0-------8-------0-------8---------|
 |
Guitar 2:
e|-------------------------------------------------------------------|
B|-----10------10------10------10------10------10------10------10----|
G|---12------12------12------12------12------12------12------12------|
D|-12------10------12------10------12------10------12------10--------|
A|-------------------------------------------------------------------|
D|-------------------------------------------------------------------|
 
Ecrane / Pentru rugăciuni / Maşină / De făcut minuni
Nimeni nu-i / Doar al lui / Casă de nebuni
Guitar 1:
e|-------------------------------------------------------------------|
B|-------------------------------------------------------------------|
G|-------------------------------------------------------------------|
D|------7-------7-------7-------7-------7-------7-------7------------|
A|---10------10------10------10------10------10------10--------------|
D|-0-------8-------0-------8-------0-------8-------0-------8---------|
 |
Guitar 2:
e|-------------------------------------------------------------------|
B|-----10------10------10------10------10------10------10------------|
G|---12------12------12------12------12------12------12--------------|
D|-12------10------12------10------12------10------12------10--------|
A|-------------------------------------------------------------------|
D|-------------------------------------------------------------------|
 
 
Guitar 1:
e|-------------------------------------------------------------------|
B|-------------------------------------------------------------------|
G|-------------------------------------------------------------------|
D|-10-------10-------7-------5---------------------------------------|
A|-8--------7--------3-------3---------------------------------------|
D|-8--------7--------3-------2---------------------------------------|
 |
Guitar 2:
e|-------------------------------------------------------------------------------------------------|
B|-------------------13-13-13-10-10-10-------------------------------13-13-13-10-10-10-------------|
G|----------10-10-10-------------------12-12-10-10----------10-10-10-------------------12-12-10-10-|
D|-12-12-12----------------------------------------12-12-12----------------------------------------|
A|-------------------------------------------------------------------------------------------------|
D|-------------------------------------------------------------------------------------------------|
 |
e|-------------------------------------------------------------------------------------|
B|-13-13-13-10-10-10-------------------------------13-13-13-10-10-10-------------------|
G|-------------------12-12-12-10-10-10-12-12-10-10-------------------12b14-12b14-12b14-|
D|-------------------------------------------------------------------------------------|
A|-------------------------------------------------------------------------------------|
D|-------------------------------------------------------------------------------------|
 
Priveşte / Moartea e în roz / Priveşte / Omul din moloz
Rânjet fals / Fără glas / Chipul tras / În bronz
Guitar 1:
e|-------------------------------------------------------------------|
B|-------------------------------------------------------------------|
G|-------------------------------------------------------------------|
D|-10-------10-------7-------5---------------------------------------|         x2(everything twice)
A|-8--------7--------3-------3---------------------------------------|
D|-8--------7--------3-------2---------------------------------------|
 |
Guitar 2:
e|-------------------------------------------------------------------------------------------------|
B|-------------------13-13-13-10-10-10-------------------------------13-13-13-10-10-10-------------|
G|----------10-10-10-------------------12-12-10-10----------10-10-10-------------------12-12-10-10-|
D|-12-12-12----------------------------------------12-12-12----------------------------------------|
A|-------------------------------------------------------------------------------------------------|
D|-------------------------------------------------------------------------------------------------|
 |
e|-------------------------------------------------------------------------------------|
B|-13-13-13-10-10-10-------------------------------13-13-13-10-10-10-------------------|
G|-------------------12-12-12-10-10-10-12-12-10-10-------------------12b14-12b14-12b14-|
D|-------------------------------------------------------------------------------------|
A|-------------------------------------------------------------------------------------|
D|-------------------------------------------------------------------------------------|
 
 
Outro:
Guitar 1:
e|---------------------------------------------------------------|
B|---------------------------------------------------------------|
G|---------------------------------------------------------------|
D|---------------------------------------------------------------| x4
A|-3-3-5-5-5-3---3-5---3-3-5-5-3-3-5-5-5-5-----5-----------------|
D|-0-0-0-0-0-0---0-0---0-0-0-0-0-0-0-0-0-0-----0-----------------|
 x
Guitar 1:
e|---------------------------------------------------------------|
B|---------------------------------------------------------------|
G|---------------------------------------------------------------|
D|---------------------------------------------------------------|
A|-3-3-5-5-5-3---3-5---3-3-5-5-3-3-5-5-5-5-----5-----------------|
D|-0-0-0-0-0-0---0-0---0-0-0-0-0-0-0-0-0-0-----0-----------------|
 |                                                                         Repeat till the end...
Guitar 2:
e|---------------------------------------------------------------|
B|---------------------------------------------------------------|
G|---------------------------------------------------------------|
D|---------------------------------------------------------------|
A|-333-5-5-5-3---3-5---333-5-5-333-5-5-5-5-----5-----------------|
D|-000-0-0-0-0---0-0---000-0-0-000-0-0-0-0-----0-----------------|
  • vladalmond
    28 decembrie 2015 16:45
    Perfect!
6Ld5REUUAAAAAA1PBEDya2BDGnf5rYKeKnmYm4Cz
b36e04655dcd2eecc418dc69ee7c819b