Luna Amară - Pietre in alb

(/) Slide Up  () Slide Down  (h) Hammer On  (p) Pull Off  (b) Bend (r) Release (v) Vibrato

probabil mihnea

E|----------------------------------------------------------------------
B|----------------------------------------------------------------------
G|----------------------------------------3-----------------------------
D|-------4/5--7------------------------------5---------------5-----5----   chitara 1
A|--0----------------------------------5--------5-----------------------
E|----------------------------------3--------------------/6-----6-----6- 

E|----------------------------------3---------------------6--3----------
B|----------------------------------3---------------------------3-------
G|---------------5------------------3-----------------------------------
D|-------4/5--7-----75--3----------5-----------------------------------   chitara 2
A|---------------------------5------5-----------------------------------
E|----------------------------------3-----------------------------------

si celalalt chitarist, tot mihnea dar... alin, andrei, adi... nu stiu :)


aveti nevoie de guitar pro 6, atentie 6! sase, six!!! pentru a rula tabul

spor si o zi buna



							http://www.guitartabcreator.com
  • rasgeado
    9 noiembrie 2014 15:26
    @KytSoldier: Ciudat, eu am GuitarPro 6 (6.1.6) si pot deschide fisierul fara probleme.
  • KytSoldier
    9 noiembrie 2014 10:52
    am downloadat guitar pro 6 ..dar nu mi se deschide...ce ar trebui sa fac?
  • Bogdan Alin
    21 februarie 2012 04:18
    ai dreptate, am facut tabul pe o clasica si nu miam dat seama. suna mai bine cu re.dar tot nu inteleg de unde Re-ul de pe La
  • Daniel.Sorescu
    21 februarie 2012 01:36
    Salut Alin ! Am incercat sa fac o transpunere, dar cand am salvat textul a ajuns asa cum il vezi. Iti spun sigur ca piesa este in Drop D, si incepe de pe coarda Re (D) groasa.

    G|---------------------------------------------------------------------
    D|-----4-5-7-------8---8--8--------------------------------------------
    A|---5-----------5--------------
    D|-0-----------5-----8--8------------

    cam asa ar fi primele note.
  • Bogdan Alin
    14 februarie 2012 09:22
    salut daniel,
    1: daca dai jos tabu si il asculti vei vedea ca suna ca piesa, asa ca in drop d sau nu suna la fel.
    2: sincer nu inteleg nimic din "transpunerea" ta, si
    3: astept cu nerabdare un tab mai bun urcat de tine!

    o zi buna