Luna Amară - Pietre in alb

(/) Slide Up  () Slide Down  (h) Hammer On  (p) Pull Off  (b) Bend (r) Release (v) Vibrato

probabil mihnea

E|----------------------------------------------------------------------
B|----------------------------------------------------------------------
G|----------------------------------------3-----------------------------
D|-------4/5--7------------------------------5---------------5-----5----   chitara 1
A|--0----------------------------------5--------5-----------------------
E|----------------------------------3--------------------/6-----6-----6- 

E|----------------------------------3---------------------6--3----------
B|----------------------------------3---------------------------3-------
G|---------------5------------------3-----------------------------------
D|-------4/5--7-----75--3----------5-----------------------------------   chitara 2
A|---------------------------5------5-----------------------------------
E|----------------------------------3-----------------------------------

si celalalt chitarist, tot mihnea dar... alin, andrei, adi... nu stiu :)


aveti nevoie de guitar pro 6, atentie 6! sase, six!!! pentru a rula tabul

spor si o zi buna



							http://www.guitartabcreator.com
  • rasgeado
    9 noiembrie 2014 15:26
    @KytSoldier: Ciudat, eu am GuitarPro 6 (6.1.6) si pot deschide fisierul fara probleme.
  • KytSoldier
    9 noiembrie 2014 10:52
    am downloadat guitar pro 6 ..dar nu mi se deschide...ce ar trebui sa fac?

Transpunerile de pe acest site reprezintă viziunea personală a utilizatorilor asupra pieselor.
b27721bdd38030eb7a71d7cce5da5ff9
f7e9d1d2-ebba-44ba-8198-e810bddf71a6