Luna Amară - Pietre în alb (ver.2)

Acordaj: |D-A-D-G-B-E|

E|-----------------------------------------------------------------------------------------------------6/3-----
B|-------------------------------------------------------------------------------------------------8---3----3--
G|-------------------------------------------------------------------------------------------------7---3-------
D|----4/5-7-----8----------8----8--------4/5-7------8-----------8----8---------4/5-7--10--8-7--5---5-----------
A|------------5---5-----10---10---10--------------5---5------10---10---10--------------------------------------
D|-0--------5--------8----------------0--------5----------8-----------------0----------------------------------

E|--------------------------6/3----
B|----------------------8---3----3-
G|----------------------7---3------
D|--4/5-7--10--8-7--5---5----------
A|---------------------------------
D|0--------------------------------