Luna Amară - Rosu aprins (cele doua variante, mp3 sau video)

pai...
 
versurile la melodie le gasiti oriunde, o sa fac taburile cu acorduri si va
 dati voi seama cum merg...

Varianta mp3:

vers + intro:
e-3---0----0-0-0-0-0
b-3---3----3-1-0-1-3
g-0---2----0-0-0-0-0
d-0---0----2-2-2-2-2
a-2---0----2-2-2-2-2
e-3--------0-0-0-0-0

ref: G C9+5    partea cun in noapte ma pierd: F E 

Varianta din video ( zic eu mai interesanta):

vers + intro:

e-3---0----0-0---0
b-3---3----0-1---1
g-0---0----0-0---0
d-0---4----2-2---2
a-2---5----2-2---3
e-3--------0-0---0
  ascultati versiunile si va dati seama... multumesc pentru rating

scuze pentru greseala cu solul pe 2
  • ngwdaniel
    20 august 2011 13:01
    cred ca sunt cam afoni aia care au dat rating :)
6Ld5REUUAAAAAA1PBEDya2BDGnf5rYKeKnmYm4Cz
bf6d473ee606b327729db9fc1efe172a