Luna Amară - Somn (solo intro)

  • (3 voturi)
  • Contribuție:  anonim536
-----------------------------             ------------------- 
-----------------------------             -------------------
-----------------------------  de 3 ori   ------------------- 
-----10-9p10h9--9--7---------             --------5/7~7~----- 
-7-7----------10-----10-9~---             ---7~-7------------
-----------------------------             ------------------- 


-------------------------------------------------------------
-------------------------------------------------------------
-------------------------------------------------------------
-10-10-9~----------10-10-9~----------10-10-9~----------------
----------12-10/12----------12-10/12----------12-10/7-7~-----
-------------------------------------------------------------