Maria Mocanu - Colind pentru Eminescu

Chitara e acordată cu un semiton mai jos

E |--------------0-||
B |-----------1----||
G |--------2-------||
D |-----2----------||
A |--0-------------||
E |----------------||

Am
Miez de ghenar, 

Fulguie rar
Dm               Am
Aeru-i dalb de colinde
Am
Sus în tării, 
         
În veșnicii
E7                  Am
Stea de-nviere se-aprinde

     Am
E |--------------0----------|--------------0-----------||
B |--------1----------1-----|--------1-----------1-----||
G |-----2-----2----2-----2--|-----2-----2-----2-----2--||
D |--2----------------------|--------------------------||
A |-------------------------|--0-----------------------||
E |-------------------------|--------------------------||

 Dm
Din focu-i sfânt
 Am
Către pământ
 E7                   Am
Doi ochi de vis se ivescu
  Dm   
Fruntea-i de domn
 Am
Peste nesomn
E7               Am
A lui Mihai Eminescu

  Dm
Raza-i de dor 
 G
Tremurător
C                  Am
Arde-n văpăi peste lume
  Dm
Suflet și grai
  G
Gură de rai
C                    Am
Au un părinte și-un nume

Zodia-i grea 
De om și stea
Cheamă prin vremi și ne-adună
Codrii cu brazi
Ieri și cu azi
Neamu cu doina-mpreună

O lerui ler
Până la cer
Aeru-i plin de colinde 
Iarăși și iar
Miez de ghenar
Stea de înviere aprinde

O lerui ler
Până la cer
Aeru-i dalb de colinde
Iarăși și iar
Miez de ghenar
Stea de înviere aprinde