Mauser - Mauser

http://www.myspace.com/mauserband


E|-----------------------------------------
B|-----------------------------------------
G|-----------------------------------------
D|--------------1-----------1--1-----------
A|--0--0--0--3-----0--0--0--------3--3-----
E|-----------------------------------------



E|--------------------------------------
B|--------------------------------------
G|--------------------------------------
D|--------------1-----------1--1--------
A|--0--0--0--3-----0--0--0--------3--3--
E|--------------------------------------



E|-----------------------------------
B|-----------------------------------
G|-----------------------------------
D|--------------1--------------------
A|--0--0--0--3-----0--0--------------
E|-----------------------0--0--3--3--
							
tab creat cu:
http://www.guitartabcreator.com