Mircea Vintilă - Mielul (solo)

e-5-7-5-3-2-3-3-2---5-7-5-3-2-3-3-2
B----------------------------------
G----------------------------------
D----------------------------------
A----------------------------------
E----------------------------------

Un te duci tu mielule(x2)


e-2-3-2---0-----2-3-2---0----
B------3-3--2-3------3-3--2-3
G----------------------------
D----------------------------
A----------------------------
E----------------------------

La pasune domnule(x2)

Si tot asa pe toate versurile. Imi pare rau daca apare ceva neplacut dar este prima mea 
tabulatura.
  • sollo
    14 mai 2014 21:05
    e-5-7-5-3-2-0-2----5-7-5-3-2-0-2---|
    B----------------------------------|
    G----------------------------------|
    D----------------------------------|
    A----------------------------------|
    E----------------------------------|

    e-2-3-2---0---------2-3-2----------|
    B-------3---2-3-----------3---2-3--|
    G---------------------------2------|
    D----------------------------------|
    A----------------------------------|
    E----------------------------------|

    :)
  • Mit
    27 septembrie 2013 16:36
    cam gresita... mai repara

Transpunerile de pe acest site reprezintă viziunea personală a utilizatorilor asupra pieselor.
c6af0f24a8eed37282a17da4310e7ce8
f7e9d1d2-ebba-44ba-8198-e810bddf71a6