Mircea Vintilă - Pământul deocamdată

Pământul deocamdată – Mircea Vintilă


Intro: 

     Am    Am                 G
e|------------------|-------------------|
B|-----1-------1----|------------0-----0|
G|---2-------2------|----------0-----0--|
D|---------2--------|---2-3-------------|
A|-0----------------|--------------2----|
E|------------------|--------3----------|

        C                      C
e|------0-----------|-------------------|
B|---------1-------1|------------1-----1|
G|---0-------0---0--|-----2----0-----0--|
D|-------------2----|--2---2h3-----2----|
A|-2----3-----------|-------------------|
E|------------------|-------------------|

        G
e|------------------|-------------------|
B|----------0------0|----------0-----0--|
G|---0----0------0--|---0----0-----0----|
D|-2----------------|-------------------|
A|-------------2----|-2----------2------|
E|------3-----------|------3------------|

        Am                 G
e|-------0----------|-------------------|
B|---------1-------1|----------0-----0--|
G|---0-------2---2--|---2----0-----0----|
D|-------------2----|-2-----------------|
A|-2-----0----------|-----------2------ |
E|------------------|------3------------|

           Timpul vieții ni-I scurt...

 
Am                   G
Timpul vieţii ni-i scurt 
                  C
Hai sa-l facem curat
                  F
Trăiesc unii din furt, 
         G             Am
Alţi - doar din ce au dat
Am                G
Sunt săraci şi bogaţi
                 C
Laşii scuipă pe bravi
                  F
Voi ce-n lună zburaţi
         G        Am
Până la cer va urcaţi
                     G
Pe spinări de noi sclavi.

REFREN:
            C          F
Pe pământ avem de toate
        G           C
Şi mai bune si mai rele,
C          G
Bune – rele
                 C       F
Şi închisori si libertate
        G       C         F
Şi a putea, şi nu se poate
      G        C
Şi noroi şi stele.


Voi ce-n lună plecați
Cu ale noastre izbânzi
Nu uitaţi ca aveţi fraţi 
Pe planetă flămânzi
Pâinea lor o mâncaţi
Printre stele zburând
Voi degeaba zburați
Când cei subdezvoltaţi 
Se târăsc pe pământ.

REFREN
Pe pământ avem de toate
Şi mai bune si mai rele,
bune - rele
Şi închisori si libertate
Şi a putea, şi nu se poate
Şi noroi si stele.

Lumea-i plina de răni 
Şi de doctori docenţi
Şi de măşti şi de vămi 
Şi de mari inocenţi.
Fiindcă naşteţi copii 
Apăraţi-i luptând
Doborâţi monştrii vii,
Ce în veac de vecii
Dolii pun pe pământ.

REFREN
Pe pământ avem de toate
Şi mai bune si mai rele,
bune - rele
Şi închisori si libertate
Şi a putea, şi nu se poate
Şi noroi şi stele.

Între cei care trag
Şi acei ce sunt trași,
Nu e loc de vreun steag,
E o groapa de pași.
Între ei sunt sudați,
Cu un strâmb ideal 
Cum sunt bine legați
Condamnatul de laț
Și biciușca de cal.

REFREN
Pe pământ avem de toate
Şi mai bune si mai rele,
bune - rele
Şi închisori si libertate
Şi a putea, şi nu se poate
Şi noroi şi stele.

Fii ai muncii aveți
Năduşeala pe piept
Cum stă nurca de preț
Pe-al madamelor piept.
Uni iau, alții fac
Uni dorm, alții sunt
Între înger și drac, 
Trage omul sărac
Înhămat la pământ.


REFREN
Pe pământ avem de toate
Şi mai bune si mai rele
bune - rele
Şi închisori si libertate
Şi a putea
Şi nu se poate
Şi ruină si cetate,
Genii mari si frunţi tembele,
Vânt ce stă şi vânt ce bate,
Şi martiri dar şi lichele,
Nedreptate şi dreptate
Și-a putea şi nu se poate
Şi noroi şï stele

Transpunerile de pe acest site reprezintă viziunea personală a utilizatorilor asupra pieselor.
0f0403e3f2a6e3a8f2fd9e1c82ec48fb
f7e9d1d2-ebba-44ba-8198-e810bddf71a6