Nicu Alifantis - Ajunul din copilarie

Dm                A7                       Dm
Ajunul din copilarie, cu lumanari si brad frumos
                      A7                   Dm
Stand pe genunchii mamei, inchizi pleoapa somnoros
               Gm                           Dm
Nici o nuia in sac; o carte, atata doar de colorat,
                 A7                         Dm
Si-o pasare de guma ca sa te uiti la ea extaziat.

Solo chitara:

E---------------------
B------11-10----------
G----12---10---9------
D---------------------
A---------------------
E---------------------

E---------------------
B------11-10----------
G----12--9--10--------
D---------------------
A---------------------
E---------------------

E---------------------
B------11-10----------
G----12---10---9------
D---------------------
A---------------------
E---------------------

e---------------------
B---------------------
G----9---10---12------
D---------------------
A---------------------
E---------------------

e---------------------
B---------------------
G----9---10---9-------
D----------------12---
A---------------------
E---------------------

Ajunul din copilarie, prea iute disparand in zbor
Abia te joci si razi si iata ti se spune: "somn usor!"
Ti-aduce mama o felie de paine, sa te linistesti,
Si cu felia-n mana intri in visele copilararesti.

Ajunul celor maturi; daruri de cate oare nu-ti va da!
Vechi amintiri batand din aripi vor poposi in preajma ta
Ajunuri vechi si frunti plecate s-au sters de timpii fumurii
Imi place jocul de lumina din jocurile de copiï.