Nicu Alifantis - Ce bine ca esti

  • (3 voturi)
  • Contribuție:  vasib
Intro:

e|-3-5h7-5-x---5555-555---|
B|-3-5---5-8---5555-555---|
G|-------------5555-555---|
D|------------------------|
A|------------------------|
E|------------------------|

e|-777-555-7-5--33-0-22-3-|
B|-777-555-7-5--33-0-33-3-|
G|-555-555-5-5--00-0-44-0-|
D|--------------00-0-00-0-|
A|------------------------|
E|------------------------|

(2x2)

Versuri:

   G             Am         
e|---------------000-3-33-0--|
B|---------------111-1-11-1--|
G|---------------222-2-22-2--|
D|---------------222-2-22-2--|
A|---------------000-0-00-0--|
E|---------------000-0-00-0--|
Du-ma-n fericire sus        

    D7                 
e|--2232-02-------------|
B|--1111-11-------------|
G|--2222-22-------------|
D|--0000-00-------------|
A|----------------------|
E|----------------------|
     Izbeste-mi tampla de

   G    Bm G
e|-330--22-3------------|
B|-330--33-3------------|
G|-000--44-0------------|
D|-000--00-0------------|
A|----------------------|
E|----------------------|
  stele pana cand


Du-ma-n fericire sus
Izbeste-mi tampla de stele pana cand
Lumea mea prelunga si nesfarsire
Se face coloana sau altceva
Mult mai inalt si mult mai curand
Mult mai inalt si mult mai curand

Ce bine ca esti, ce mirare ca sunt
Doua cantece diferite, lovindu-se, amestecandu-se
Doua culori ce nu s-au vazut niciodata
	
    G	                  D7
Una foarte jos, intoarsa spre pamant 
        G  F#           E     E7
Una foarte sus, aproape rupta 	  
       Am	      D7
In infrigurata, neasemuita lupta 
      G	               B7
A minunii ca esti, a-ntamplarii ca sunt
6Ld5REUUAAAAAA1PBEDya2BDGnf5rYKeKnmYm4Cz
869ab1af33a098fb696c7a0620148feb