Nicu Alifantis - Floarea-Soarelui

Intro:

E||--3-----2-----3-----------|--3-----2-----3-----------|
B||-----0-----0-----0-----0--|-----0-----0-----0-----0--|
G||--------------------0-----|--------------------0-----|
D||--2-----------2-----------|--2-----------2-----------|
A||--------2-----------------|--------2-----------------|
E||--------------------------|--------------------------|


                                                      
--3-----5-----7-----------|--8-----------7-----------|
-----0-----0-----0-----0--|-----5-----5-----0-----0--|
--------------------0-----|--------5-----------0-----|
--2-----4-----5-----------|--7-----------5-----------|
--------------------------|--------------------------|
--------------------------|--------------------------|


                                                      
--5-----------3-----------|--3-----7-----3-----------|
-----5-----5-----0-----0--|-----0-----0-----0-----0--|
--------5-----------0-----|--------------------0-----|
--7-----------2-----------|--2-----5-----2-----------|
--------------------------|--------------------------|
--------------------------|--------------------------|


                                                        
--2-----7-----2-----------|--2-----------0------------||
-----0-----0-----0-----0--|-----0-----0-----0-----0---||
--------------------2-----|--------2-----------0-----*||
--------5-----------------|--------------2-----------*||
--2-----------2-----------|--2------------------------||
--------------------------|---------------------------||

Em* B7 Em*
Ne moare dragostea
Em* B7 Em*
Iubito-n nopţi târzii 
Em* G7M9 G*       Cadd9    G*
şi bate vântul de ne strică urma
Am(V)          Em*
La margine de câmp
Em* G* Em*
Aştept să vii
Em G*       B7                  Em
Astept să-ţi văd în zarea moartă umbra.


De floarea-soarelui
Sunt lanuri lungi
Prezente pentru întâlnirea noastră fastuoasă
Dar drumul este lung
şi vara-i pe sfârsite 
Presimt că ai uitat calea întoarsă


Solo

Ce de tăcere si 
Ce greu răsare luna
şi noaptea cade peste mine în fâşii
Se sterge timpul, e timp în aşteptare
Ne moare dragostea,
Iubito-n nopţi târzii
şi tu nu ştii


Em* G7M9  G* Cadd9 Am(V)  

-3- -5-  -7- -8-   -5-
-0- -0-  -0- -5-   -5-
-0- -0-  -0- -5-   -5-
-2- -4-  -5- -7-   -7-
-2- -x-  -x- -5-   -7-
-0- -x-  -x- -x-   -5-