Nimeni Altu - Înger şi demon

  • (4 voturi)
  • Contribuție:  chaoscastle
  • Ultima actualizare: 19.12.2012
e|------5-7-8-8/12--12-12-10-12---------0--5---10-10/15--12--
B|-----5------------------------------1--------------------13
G|----4-----------------------------2------------------------
D|--------------------------------3--------------------------
A|-0---------------------------------------------------------
E|-----------------------------------------------------------



e|------5-7-8-8/12--12-12-10-12---------0--5------------------
B|-----5------------------------------1--------13-13/15-------
G|----4-----------------------------2--------------------16/12
D|--------------------------------3---------------------------
A|-0----------------------------------------------------------
E|------------------------------------------------------------


e|---------0--5-8-7-5-12-10--8-----<12>-----------------------
B|-------1-------------------------<12>-----------------------
G|-----2---------------------------<12>-----------------------
D|---2--------------------------------------------------------
A|-0----------------------------------------------------------
E|------------------------------------------------------------
  • edimemune
    9 ianuarie 2021 17:17
    <12> reprezinta nota armonica. doar atinge usor coarda cu degetul si ciupeste coarda. nu atinge coarda de fret. 10/15 inseamna slide, adica in timp ce coarda inca vibreaza muta degetul de pe fretul 10 pe 15
  • Gabi 50
    8 martie 2018 18:44
    acele numere reprezinta fretul iar literele din stanga reprezinta coorzile
  • Andydrei
    1 septembrie 2014 13:46
    Este extrem de bun aceast tab, numai ca eu, fiind incepator, nu inteleg ce sunt acele "8/12"; "10/15" sau < 12 >.

    Daca mi-ai explica ti-as fi recunoscator.

    Multumesc!

    Stiu ca numerele reprezintafret-urile de la chitara, dar nu inteleg de sunt jumatati sau ceva de genul. Prima data am crezut ca sunt slide-uri. De la fret-ul 8 la 12, da' se auzea nasol
1d78fff1e9d3379e5c2391695a604f9c
6Ld5REUUAAAAAA1PBEDya2BDGnf5rYKeKnmYm4Cz