Non Profit - Dincolo de iubire

- = Palm mute 
v = Vibrato

Nonprofit- Dincolo de iubire tab


Intro Chitara Ritm
E|---------------|--
B|---------------|--
G|---------------|--    (X2)
D|--10-12--7--5--|--
A|--10/12--7--5--|--
E|--8--10--5--3--|--  
    *14 *2  *13 *3

Intro Chitara Solo

E|------------------------|---------------------
B|--------------13--------|---------------------
G|----------12------12v---|--------------14----- (x2)
D|--12--14----------------|----------12------14v
A|------------------------|--14--15-------------
E|------------------------|---------------------

Vers Chitara Ritm
E|----------------|----------------|--
B|----------------|----------------|--
G|----------------|----------------|--
D|--10--12--7--5--|--10--12--7--5--|--
A|--10--12--7--5--|--10--12--7--5--|--
E|--8---10--5--3--|--8---10--5--3--|--
    -  -   -  -    -   -  -  -


E|----------------|----------------|--
B|----------------|----------------|--
G|----------------|----------------|--
D|--10--12--7--5--|--10--12--7--5--|--
A|--10--12--7--5--|--10--12--7--5--|--
E|--8---10--5--3--|--8---10--5--3--|--


E|------------------------|---------------------
B|--------------13--------|---------------------
G|----------12------12v---|--------------14----- (x2)
D|--12--14----------------|----------12------14v
A|------------------------|--14--15-------------
E|------------------------|---------------------


Bridge Chitara Ritm

E|---------------------------------|-------------------------
B|---------------------------------|-------------------------
G|---------------------------------|-------------------------
D|--3--12--7--x--x--7--7--x--x--7--|--3--12--5-----5v--v-----
A|--3--12--7--x--x--7--7--x--x--7--|--3--12--5---------------
E|--1--10--5--x--x--5--5--x--x--5--|--1--10--3--3------------


Bridge Chitara Solo

E|----------------------------------------------------
B|----------------------------------------------------
G|--8/10--9---------------------5------------5--------
D|-----------10--9--9/109---7-----7v--7--7-----7v----
A|----------------------------------------------------
E|----------------------------------------------------
  

E|--------------------------------
B|--------------------------------
G|--8/10--9-----------------------
D|-----------10--9--9/109---5v---
A|--------------------------------
E|--------------------------------


Vers+Bridge din nou

la bridge chitara ritm face slide de pe G5 pe D5 la ultima masura

Refren Chitara Ritm


E|-----------------
B|-----------------
G|--5--------2----- (x2)
D|--5--2--3--2--5--
A|--3--2--3--0--5--
E|-----0--1-----3--

Vers doar 2 masuri


Solo chitara Ritm (ascultati piesa pentru timing)

E|----------------------------------------------
B|----------------------------------------------
G|-----------------------------------------------
D|--7--5/12--7--9--10--12--3--5-----------7--10--
A|--7--5/12--7--9--10--12--3--5(mentine)--7--10--(ultimele 2 powerchorduri 
E|--5--3/10--5--7--8---10--1--3-----------5--8---    se canta pe ultimele 2 note din solo)



Soloul lui Nelu


E|------------------------------------------------------------------------15/20v-
B|-13v-12-13-15v-13-15-17-15h17b18r17-15-----------------------------------------
G|---------------------------------------17-14-16b17r14--------------------------
D|------------------------------------------------------17-15-14-----------------
A|---------------------------------------------------------------17-15-14--------
E|-------------------------------------------------------------------------------


Refren iarasi insa incepe de la E5 (x2)

Pauza

Chitara ritm face introul pana la sfarsit)

iar chitara solo face asta

E|--------------------|-------------15-12-8/1087-5v-
B|-12s13v-12-13-10----|-------12-13-------------------
G|----------------12v-|-10/12-------------------------
D|--------------------|-------------------------------
A|--------------------|-------------------------------
E|--------------------|-------------------------------
6Ld5REUUAAAAAA1PBEDya2BDGnf5rYKeKnmYm4Cz
26df332181eb140b232c3355db1e7b0f