O-zone - Printre nori

  • (7 voturi)
  • Contribuție:  anonime
Intro (pian):


     Em                                         Am                 
E||---------------------|---------------------|---------------------|
B||--------0----------0-|--------0-------3--1-|---------------------|
G||-----0----------0----|-----0---------------|---------------------|
D||--2----------2-------|--2----------2-------|--------2----------2-|
A||---------------------|---------------------|--0--3-------0--3----|
E||---------------------|---------------------|---------------------|


                         G                                         
----------------------|--------------------|------------------------|
----------------------|--------------------|------------------------|
----------------------|--------------------|------------------------|
--------2--------2----|--------0--------0--|--------0-------4--2----|
--0--3-----0--3-------|-----2--------2-----|-----2------------------|
----------------------|--3--------3--------|--3----------3----------|


  B                                                
------------------------|------------------------||
------------------------|------------------------||
------------------------|------------------------||
-----1--4-------1--4----|-----1--4-------1--4----||
--2----------2----------|--2----------2----------||
------------------------|------------------------||
	
	Refren:
	
	Em                              Am
	Am sa te chem sa mergem printre nori
	       G                  B
	Sa te simt in tunetul placerii
	Em                             Am     B
	Am sa te tin pe palma pana in zori, a-ha
	         G    C
	Lumea va fi a ta
 	    Am            B           Em
	Am sa te chem s-o impartim in doua

Em                    
Vreau sa te chem. Pe nori, undeva
         Am
Unde-i rece, langa luna sa simti caldura mea
      G
Vom zbura dupa iubire intr-un vis uluitor
         B
Iar tu iarasi imi vei spune:

"Esti doar un visator".
Em 
Te rog, iubito, doar incearca
  Am
Sa imi dai o sansa, si-o sa vezi ca
 G           C
N-o sa mai plangem.
Am
Am gasit un loc pe nori
       B
Vreau acolo sa te chem.

	Refren.	

Em
Vreau sa te chem. Pe nori
               Am
Undeva, cat mai sus langa stele
                        G
Sa putem vedea cea mai sincera iubire,

Nascuta in armonie
         G
Si-o sa vezi ce-am fi putut simti...

Ce-am fi putut avea!
Em
Te rog iubito, doar incearca
   Am
Sa imi dai o sansa, si-o sa vezi ca
 G           C
N-o sa mai plangem
    Am
Am gasit un loc pe nori
       B
Vreau acolo sa te chem.

	Refren.

In doua...
In doua...
In doua...

Am sa te chem s-o impartim in doua
6a3cd15fef3e251d89a539799ccadedd