Odyssey - Chemarea

  • (1 voturi)
  • Contribuție:  kongwu
  • Ultima actualizare: 13.07.2010
Chemarea

Intro
Em                          Am
Adie suspine şi codrul imi spune
C           D            Em
Poveşti ce demult le-am uitat
Em                           Am 
În munte doineşte, un fluier şopteşte,
C            D   Em
E iarăşi horă în sat…

Refre
G              D
Când dorul mă apasă
%Am        C          D
Mă-ntorc pribeag acasă,
G                     D  
Când fânu-i iar de coasă,
Am         C      D
Şi-s fete de măritat…
Dar eu iubesc doar una,
Cu ochi negri ca mura,
Ce-mi lasă prada gura,
La poartă pe-nserat…

Solo:

E|----------------------
B|----------------------
G|----------------------
D|-----0—2—0------------
A|-----------2—0--------
E|----------------------

Em  D  Am…

Em
Ochii tăi mă leagă
Cu-n blestem tăcut,
Paşii să nu-mi bată,
   D            Am
Drumuri ce-au bătut…

Solo…

Sufletu-mi încins,
Dorul meu aprins,
Vrea să se adape
Din vise furate…

Solo…

Munţii mă cuprind,
În piatră mă-nchid,
Aripi să nu prind,
Să nu zbor departe…

Solo…

Em,D,Am

Solo:

E|----7-8-7- -5- -3-------------
B|-------------------0-1-0------
G|-------------------------2-0--
D|------------------------------
A|------------------------------
E|------------------------------  x 2

E|------5- -3- -2---0------0------------------------------------
B|-----------------------3------3- -3----5p7—5—5—3—3------------
G|--------------------------------------------------------------
D|---------------------------------------------------0—2—0------
A|---------------------------------------------------------2—0--
E|--------------------------------------------------------------

Em
Ochii tăi mă leagă
Cu-n blestem tăcut,
Paşii să nu-mi bată,
   D             Am
Drumuri ce-au bătut…

Refren…
  • kongwu
    23 mai 2010 11:02
    e primu meu tab si sczatzi de modelul kum lam fakut...sper ka ii bun:)
6Ld5REUUAAAAAA1PBEDya2BDGnf5rYKeKnmYm4Cz
6904c1df96efe0dbfb991954417dcd25