Odyssey - Sentiment de Ardeal

  • (1 voturi)
  • Contribuție:  crasher
  • Ultima actualizare: 11.07.2010
Intro + Refren:  Dm F C


                  Dm
Noaptea prin Ardeal,
                  F
Printre sălcii ude,
               C
Nechezat de cal,
               Dm
Cine mi-l aude…

Noaptea prin Ardeal,
Printre sălcii ude,
Nechezat de cal,
Cine mi-l aude…

Refren
instrumental

Pohta lui Mihai,
Verde leru-i ler…
Peste şapte cai
Picură din cer…

Pohta lui Mihai,
Verde leru-i ler…
Peste şapte cai
Picură din cer…

Refren
instrumental

Şi cum vin de lin,
Roua mi se zvântă,
Mirele destin
Şi treime sfântă…

Şi cum vin de lin,
Roua mi se zvântă,
Mirele destin
Şi treime sfântă…

Refren x2
 
Solu-ul: 
|--------3-5-3--------------------3-5-3----------------------
|--3-5-6-------6-5-3-5-6-6--3-5-6-------5-3-5-6-3---3-5-6-5-3
|------------------------------------------------------------
|------------------------------------------------------------
|------------------------------------------------------------
|------------------------------------------------------------  o varianta transpusa
 

si a doua e cum o face in piesa
E|-------------------------------------------
B|------------8--10--8-----------------------
G|--7--9--10------------10--9--7--9--10--10--
D|-------------------------------------------
A|-------------------------------------------
E|-------------------------------------------


------------------------------------------
------------8--10--8----------------------           
--7--9--10------------10--9--7--9--10--7--
------------------------------------------
------------------------------------------
------------------------------------------

------------------
------------------
--7--9--10--9--7--
------------------
------------------
------------------

P.S: la strofa acordurile se tin dublu
6Ld5REUUAAAAAA1PBEDya2BDGnf5rYKeKnmYm4Cz
af7459110e7228fc723b2f6d4d345e4f