om la lună - Timp pentru noi (intro)

  • Contribuție:  AndreiKZ
  • Ultima actualizare: 16.04.2021
E|--------------|
B|--------------|
G|--------------|  x4
D|------8-------|
A|-8h10---10----|
E|-----------11-|


E|-------------|
B|-------------|
G|-------------|  x4
D|------8------|
A|-8h10---10---|
E|-----------8-|
612c69c3388b4244f52ae3033910cd9c