Omul cu Șobolani - Cauta

  • Contribuție:  DoarLuca
  • Ultima actualizare: 03.03.2013
INTRO/VERS

e ---5-------------12-----------------
B --6-6--------14----14---------------
G -7---------15--15-------------------
D ------------------------------------  X8
A ------------------------------------
E ------------------------------------

 -5--5-------12----------------------        -5-------------12-------------15p12-15p12----
 -6----6--------14-------------------        -6-(strumming)-14-(strumming)-14----14-------
 -7------7---------15----------------  X2    -7-------------15-------------15----15------- X2
 -7----------------------------------        ---------------------------------------------
 ------------------------------------        ---------------------------------------------
 ------------------------------------        ---------------------------------------------



 -5--5-------12----------------------
 -6----6--------14------------------- 
 -7------7---------15---------------- 
 -7---------------------------------- 
 ------------------------------------
 ------------------------------------



REFREN


   pauza
-----|-----------------------------------------
-----|-----------------------------------------
-77--|--7-7-7-7--10-10-10-10--6-6-6-6--9-9-9-9-
-77--|--7-7-7-7--10-10-10-10--6-6-6-6--7-7-7-7- X2
-55--|--5-5-5-5---8--8--8--8--4-4-4-4--7-7-7-7-
-----|-----------------------------------------

---------------------------------------------
---------------------------------------------
-7-7-7-7--5-5-5-5--2-2-2-2--6-6-6-6----------
-7-7-7-7--5-5-5-5--2-2-2-2--6-6-6-6---------- X3
-5-5-5-5--3-3-3-3--0-0-0-0--4-4-4-4----------
---------------------------------------------

---------------------------------------------
---------------------------------------------
--7-7-7-10-10-10-6-6-6-9-9-9-7---------------
--7-7-7-10-10-10-6-6-6-9-9-9-7---------------
--5-5-5-8--8--8--4-4-4-7-7-7-5---------------
---------------------------------------------



BUCATA A

-------------------------------------
-666--666--666--6-6------------------
-777--777--777--7-7------------------
-777--777--777--7-7------------------
-------------------------------------
-------------------------------------

BUCATA B

----------------------------------------------------------------
----------------------------------------------------------------
-------6p5-6p5-6p5-6p5-6p5-6p5--------6p5-6p5-6-8-6-5-6p5-6p5---
----7p6----------------------------7p6--------------------------
-8p7----------------------------8p7-----------------------------
----------------------------------------------------------------

----------------------------------------------------------------
----------------------------------------------------------------
-------6p5-6p5-6p5-6p5-6p5-6p5--------6p5-6p5-6-8-6-5-6---------
----7p6----------------------------7p6--------------------------
-8p7----------------------------8p7-----------------------------
----------------------------------------------------------------

----------------------------------------------------
-10-8-10-10s11-11s13-13s15-15s17-18v----------------
---------------------------------------------------- X2
----------------------------------------------------
----------------------------------------------------
----------------------------------------------------




FINAL

------------
------------
--7-5-2-6---
--7-5-2-6--- X3
--5-3-0-4---
------------

-----------------------------------------
-----------------------------------------
--7-7-7-7--10-10-10-10--6-6-6-6--9-9-9-9-
--7-7-7-7--10-10-10-10--6-6-6-6--7-7-7-7- 
--5-5-5-5---8--8--8--8--4-4-4-4--7-7-7-7-
-----------------------------------------

------------
------------
--7-5-2-6---
--7-5-2-6--- X3
--5-3-0-4---
------------

---------------------------------------------
---------------------------------------------
--7-7-7-10-10-10-6-6-6-9-9-9-7---------------
--7-7-7-10-10-10-6-6-6-9-9-9-7---------------
--5-5-5-8--8--8--4-4-4-7-7-7-5---------------
---------------------------------------------



ordinea:

INTRO/VERS
REFREN
BUCATA A
INTRO/VERS
REFREN
BUCATA B
FINAL
6Ld5REUUAAAAAA1PBEDya2BDGnf5rYKeKnmYm4Cz
a7963fe95aea9be1a70c5dd5141c225d