Omul cu Șobolani - Cine e de vina

  • (11 voturi)
  • Contribuție:  claudiu
ocs-cine e de vina\ 0244321103
Transpunere-Claudiu (imig87@yahoo.com)

Melodia se canta in Do(prima coarda MI o duci in Do )

intro:

mi--------------------------------------------------|
si--------------------------------------------------|
sol------7-7----7-7-7------12-12--12----11-12-12-11-|  x2
re-------x-x----x-x-x------x--x---x-----x--x--x--x--|
la-------5-5----5-5-5------10-10--10----9--10-10-9--|
mi(DO)---0-0----0-0-0------0--0---0-----0--0--0--0--|



mi--------------------------------------------|
si--------------------------------------------|
sol---------7-7----7-7-7----4-4-4---5-4-4-5---|
re----------x-x----x-x-x----x-x-x---x-x-x-x---|X 2
la----------5-5----5-5-5----2-2-2---3-2-2-3---|
mi(do)------0-0----0-0-0----0-0-0---0-0-0-0---|

Intro-ul se poate continua si pe strofe(daca o canti in 2chitari,daca nu-NU)


strofe
mi-------3--------2-----------------3-----
si-------3--------3-----------------3-----
sol------0--------0---cu bataie-----0-----
re-------0--------0-----------------2-----tot bataie
la-------2--------2-----------------2-----
mi(do)---0--------0-----------------0-----
aseara m-am facut iar praf          poate am exagerat poate    
cred ca e cazul  sa ma trag pe nas  nu sunt eu cel vinovat 
 

refren
------------------------------------------------------------
-----1-----------3-----------------------3---1-------3-1----
-----0-----------0-------------------0---0---0-----0-0-0----
-----2-----------4-------------------2---2---2-----2-2-2----
-----3-----------5-------------------2---2---2-----2-2-2----
-----0-----------0-------------------0---0---0-----0-0-0----
daca ploua ma   daca e vineri       port ochelari  e luna plina 
imbrac in alb,  numai pot de cald   de soare      cine e de vina 
                                                
      
---------------------------------------------
-1----------------3--------------------------
-0----------------0--------------------------
-2----------------4--------------------------
-3----------------5--------------------------
-0----------------0--------------------------
cine e de vina,   cine e de vina


strofa-............

refren-............



 Finalul 

------------------------------------------
--1----3-----8----------------------------
--0----0-----0----------------------------
--2----4-----9----------------------------
--3----5-----10---------------------------
--0----0-----0----------------------------
  • claudiu
    4 august 2011 15:20
    Salut, trebuie sa ridici Do-ul (ciupita liber sa sune ca coarda La apasat pe fretu' 3) Nu se rupe coarda:D Depinde cum iti pui si tu corzile la chitara. Bafta:)
  • catalin808
    3 iulie 2011 20:36
    Suna excelent melodia. Singura nelamurire: in care Do duci coarda 6? Sa o las mai jos (apasat pe fretu' 9 sa sune la fel ca coarda La) sau sa o ridic (ciupita liber sa sune ca coarda La apasat pe fretu' 3) (caz in care e posibil sa o rup) ???
    Sper ca ai inteles ce zic... Scuze de cacofonii (au fost inevitabile)
    Merci fain si felicitari pentru tab!
6Ld5REUUAAAAAA1PBEDya2BDGnf5rYKeKnmYm4Cz
707b39b90ab61e8e8ea87cb265fe8fa0