Omul cu Șobolani - Cineva sa ne

  • (5 voturi)
  • Contribuție:  anonime
*** este o versiune proprie, daca vi se pare ca suna ciudat,
 sau ca nu suna ca pe albumul OCS, nu o cantati !!!
 
 
Intro si versuri:
 
 
   Em    Am    Dm
===================
e|--7----5----5----
B|--8----5----6----
G|--9----5----7----
D|--9----7----7----
A|--7----7----5----
E|--7----5----5----
 
 
 
Refren:
 
 
 
   Em    G    Bmaj
===================
e|--7----3----7----
B|--8----4----7----
G|--9----5----8----
D|--9----5----9----
A|--7----3----9----
E|--7----3----7----
 
 
*** Puneti voi versurile pe acorduri, si gata. 
Cu toate ca merge si cu acordurile in primele 
pozitii (clasice), melodia suna mai aproape de
 "realitate" cu bareuri. Voi alegeti.



6Ld5REUUAAAAAA1PBEDya2BDGnf5rYKeKnmYm4Cz
fb124a5c74567f3d1d90f20b589f708a