Omul cu Șobolani - Cineva sa ne ...

  • (3 voturi)
  • Contribuție:  Bobolanu
  • Ultima actualizare: 20.02.2010
Intro si strofa
e |---7---------5---------7-----------10------------------------------
B |---8---------5---------7-----------10------------------------------
G |---7---------6---------8-----------11------------------------------
D |---9---------7---------9-----------12------------------------------
A |---7---------7---------9-----------12------------------------------
E |-------------5---------7-----------10------------------------------
      (1)      (2)        (3)         (4)

puteti sa cantati in 2 variante : (1) (1) (2) (2)-(3)    sau (1) (1) (2) (3)-(4)   
 sper ca intelegeti la ce ma refer.


 Refren

e |-------------------------------------------------------------------
B |-------------------------------------------------------------------
G |------------------4----4s7----7------------------------------------
D |---2------5-------4----4s7----7------------------------------------
A |---2------5-------2----2s5----5------------------------------------
E |---0------3--------------------------------------------------------
                          (ultima parte e optionala dar mie mi se pare ca suna mai bine)



M-am ajutat si de celelalte taburi de pe aici so credits si celor ce le-au facut.
6Ld5REUUAAAAAA1PBEDya2BDGnf5rYKeKnmYm4Cz
221146310b29eabf38f0623d24ac7b55