Omul cu Șobolani - Doua beri goale

Nu cunosc numele catorva acorduri, asa ca le voi spune Csus4, Fsus4 si Fadd9.
Daca cineva le cunoaste il rog sa imi spuna.

Intro:

    C  Csus4  C  Csus4  Cadd9  C
e|--0----3----0----3------0----0---
B|--1----1----1----1------3----1---
G|--0----0----0----0------0----0---  (1)
D|--2----2----2----2------2----2---
A|--3----3----3----3------3----3---
E|--x----x----x----x------x----x---


    Fm  Fsus4* Fm  Fsus4  Fadd9  Fm
e|--0-----3----0-----3------0----0-
B|--1-----1----1-----1------3----1-
G|--2-----2----2-----2------2----2-  (2)
D|--3-----3----3-----3------3----3-
A|--x-----x----x-----x------x----x-
E|--x-----x----x-----x------x----x-

Se repeta de doua ori, dar a doua oara se canta pana la F4sus* dupa care se canta G# si G cu barre. 

    G#    G
e|--4-----3----|
B|--4-----3----|
G|--5-----4----|
D|--6-----5----|
A|--6-----5----|
E|--4-----3----|

Toata melodia este doar C, Fm G# si G. Dupa fiecare C si Fm se canta progresiile (1) si respectiv (2)
La refren se canta simplu C si Fm.


  C         
  Stau la masa  asta de o saptamana
            Fm
  Berile se-aduna
  
  Poate am sa fac o gluma
  C           
  Tu esti din ce in ce mai frumoasa
                
  Mie chiar imi pasa
                          C
  Nici o fata nu mai este grasa
  C                 Fm             
  Iar mie chiar imi pasa


Refren:
  C              
  Dau doua beri goale pentru una plina
             Fm
  Cine se combina, cine se combina ?
       C                              
  Cand dau doua beri goale pentru una plina
             Fm    G#                G
  Cine se combina ? Poate am sa fac o rima...

  Hai, la multi ani ! Nu mai stiu a cui e ziua
  Dar a cui e noaptea ?
  Parca adineauri o blonda imi soptea
  Vino pe balcon sa-ti arat ceva !
  Ti-o arat si eu pe-a mea.

Refren..

Mie chiar imï pasa...

Refren..
  • metall_966
    4 martie 2014 16:21
    http://www.youtube.com/watch?v=7NsiDUHuB88 E o postare mai veche de a mea, dar cat sa va faceti o idee cred ca e suficient. Spor!
6Ld5REUUAAAAAA1PBEDya2BDGnf5rYKeKnmYm4Cz
9d446da513e1c1b936e38e55ca4564fb