Omul cu Șobolani - Iaurt (bass)

  • (5 voturi)
  • Contribuție:  anonim346
Strofe
|--------2-3-2-------------|--------2-3-2---------------2-2-|--------2-3-2---------------|
|--0-0-4-------4-0-----0---|--0-0-4-------4-0-----0---------|--0-0-4-------4-0-----------|
|------------------3-3---0-|------------------3-3---0-------|------------------3-3--3--3-|
|--------------------------|--------------------------------|----------------------------|

Refren
|---------------------------|-------------------------|
|---------------------------|-------------------------|
|-----5--3-3--5-1-1-1-1-(x3)|-3-3-3-3-3-3-------------|
|---------------------------|--------------3--3-3-3-3-|

Bridge 
|-------------------------------------------------|
|-------------------------------------------------|
|--5-5-5-5-5-5-5------------------1-1-1-1-1-1-(0)-|
|----------------3-3-3-3-3------------------------|
6Ld5REUUAAAAAA1PBEDya2BDGnf5rYKeKnmYm4Cz
dd7fe6d5626deb39ab9e3e34756138fa