Omul cu Șobolani - Piesa fara titlu

  • Contribuție:  anonim870
Album: Ne Punem In Cap
Transpunere: Alex90s@yahoo.com

*Cam asa e piesa,solo-ul nu e chiar corect,dar in rest suna OK.

*Intro/Strofa:

e|--------------------------------------|
B|--------------------------------------|
G|--2~~-2-0-2-3~~--3p2----2---0-----0-2-|
D|--0~~-0-0-0-0~~--0----3-3-2-2-2-3-----|
A|--------------------------------------|
E|--------------------------------------|

*In timpul strofei cred ca a doua chitara face ceva de genul asta:

e|-5h6-5h6-5h6-5h6-5-5h6-5h6-5h6-5h6-8|


*Refren:

e|---------------------------|
B|---------------------------|
G|--7~~-------7~~--10--10-10-|
D|--7~~--7~~--7~~--10--10-10-|
A|--5~~--7~~--5~~--8---8--8--|
E|-------5~~-----------------|

*Strofa a doua:ca si la prima strofa

*La strofa a doua,chitara a doua face acelasi lucru ca si la prima strofa


*Refren

*Intrludiu:

e|-----10--------------10----------10----10----|
B|---------10-11~----------10-11~-----11-------|
G|---------------------------------------------|
D|-12--------------12--------------------------|
A|---------------------------------------------|
E|---------------------------------------------|

*Apoi vine din nou partea de refren

*Solo:

e|----------------------------------------------|
B|----------------------------------------------| 
G|----------------------------------------------|
D|----------------------------------------------|
A|-5--5-5-5------------5/8--8-8-8--10--10-10-10-|
E|-----------5--5-5-5---------------------------| 


e|-------------------------------------------------------|
B|-------------------------------------------------------|
G|-------------------------------------------------------|
D|-10-10-10-12--8-8-8-8--7-7-7-7-------------------------|
A|--------------------------------8--8-8-8--10--10-10-10-|
E|-------------------------------------------------------|

e|-----------------------------------------------------------------------------------|
B|-----------------------------------------------------------------------------------|
G|-----------------------------------------------------------------------------------|
D|-----------------------------------------------------------------------------------|
A|-0-0h1--1-1-1--5-5--5-5-5--0-0h1--1-1-1--8-8--8-8-8--0-0h1--1-1-1--10-10--10-10-10-|
E|-----------------------------------------------------------------------------------|

e|-------------------------------------------------|
B|-------------------------------------------------|
G|-------------------------------------------------|
D|---------12-12-12-12-14~--14-12-12--12-12-14-14~-|
A|-0-0-0-0-----------------------------------------|
E|-------------------------------------------------|



*Outro:

e|--------------------------------------|
B|--------------------------------------|
G|--2~~-2-0-2-3~~--3p2----2---0-----0-2-|
D|--0~~-0-0-0-0~~--0----3-3-2-2-2-3-----|
A|--------------------------------------|
E|--------------------------------------|
6Ld5REUUAAAAAA1PBEDya2BDGnf5rYKeKnmYm4Cz
df4e5a9c6831187f7ba9f66287f59580