Omul cu Șobolani - Ultimul om

  • Contribuție:  anonime
*** standard Eb tuning; nu stiu cum iese pe electrica,
 fiindca am lucrat numai pe chitara rece. 
*** asta e versiunea mea, daca nu "va iese", 
icercati voi mai bine.
 
[_intro_]
 
   F#5     G5      F#5     G5     F#5     G5            D5   C5
E|---------------|---------------|---------------|-----------------
B|---------------|---------------|---------------|-----------------
G|---------------|---------------|---------------|-----------------
D|-4-4-/-5-5-5-5-|-4-4-/-5-5-5-5-|-4-4-/-5-5-5-5-|-x-x--7-7-\-5----
A|-4-4-/-5-5-5-5-|-4-4-/-5-5-5-5-|-4-4-/-5-5-5-5-|-x-x--5-5-\-3----
E|-2-2-/-3-3-3-3-|-2-2-/-3-3-3-3-|-2-2-/-3-3-3-3-|-x-x--5-5-\-3----
 
 
[_strofa_1_]
 
        E|-----3-------3--------1-------1----
        B|-------3-------3--------1-------1--
        G|---5-------5--------3-------3------
        D|-5-------5--------3-------3--------
        A|-----------------------------------
        E|-----------------------------------
fundal:  defapt, nu...deci...singurul lucru pe care vreau sa-l
        ...sa-l scot in evidenta 
        era ca nu s-a intamplat nimic dupa ce am...
 
Nu am ce sa va mai spun, 
Ce sa va mai spun
Ce sa va mai arat...
Va mai arat...nu stiu, nu stiiiiu
 
[_pasaj_]
 
G|-5-5-\-3-3-3-|-5-5-\-3-3-3-|-5-5-\-3-3-3-|-5-5-\-3-3-3-|
D|-5-5-\-3-3-3-|-5-5-\-3-3-3-|-5-5-\-3-3-3-|-5-5-\-3-3-3-|
A|-3-3-\-1-1-1-|-3-3-\-1-1-1-|-3-3-\-1-1-1-|-3-3-\-1-1-1-|
E|-3-3-\-1-1-1-|-3-3-\-1-1-1-|-3-3-\-1-1-1-|-3-3-\-1-1-1-|
 
        E clar c-ati luat-o pe alt drum
        Ati luat-o pe alt drum
        Pe un cu totul alt drum.
 
[_refren_]
 
G5      D5      C5      D5          G5
eu sunt ultimul om ramas in viata
        D5      C5          D5        G5
eu sunt, eu sunt ultimul om ramas in viata
C5         D5         C5    D5
doar eu am mai ramas, eu am mai ramas 
C5         D5           G5
doar eu am mai ramas in viata
D5          C5            
am ramas in viata
 
[_strofa_2_]
 
 
        E|-----3-------3--------1-------1----
        B|-------3-------3--------1-------1--
        G|---5-------5--------3-------3------
        D|-5-------5--------3-------3--------
        A|-----------------------------------
        E|-----------------------------------
 
Eu nu sunt altfel decat voi,
Sunt la fel dar in zadar
Umblatori pe ape, nici macar.
Dar atat de diferiti, 
eu sunt cel ce sunt lovit, zdrobit
 
[_pasaj_]
 
G|-5-5-\-3-3-3-|-5-5-\-3-3-3-|-5-5-\-3-3-3-|-5-5-\-3-3-3-|
D|-5-5-\-3-3-3-|-5-5-\-3-3-3-|-5-5-\-3-3-3-|-5-5-\-3-3-3-|
A|-3-3-\-1-1-1-|-3-3-\-1-1-1-|-3-3-\-1-1-1-|-3-3-\-1-1-1-|
E|-3-3-\-1-1-1-|-3-3-\-1-1-1-|-3-3-\-1-1-1-|-3-3-\-1-1-1-|
 
        E clar c-ati luat-o pe alt drum
        Ati luat-o pe alt drum
        Pe un cu totul alt drum.
 
[_refren_]
 
G5      D5      C5      D5          G5
        eu sunt ultimul om ramas in viata
        D5      C5          D5        G5
        eu sunt, eu sunt ultimul om ramas in viata
C5         D5         C5    D5
doar eu am mai ramas, eu am mai ramas 
C5         D5           G5
doar eu am mai ramas in viata
D5          C5            
am ramas in viata
 
[_outro_]
 
     G5    F#5         G5     F#5
doar eu am ramas, doar eu am ramas,     x4
     G5    F#5    G5    F#5        C5
doar eu am ramas, eu am ramas in...viata
 
fundal: asadar, ce s-a intamplat defapt ? 
[...] tocmai din cauza aceasta am 
 nevoie de o a doua viata. Da' de fapt...
6Ld5REUUAAAAAA1PBEDya2BDGnf5rYKeKnmYm4Cz
e441907b0bbb2935290be28f07f246ab