Parlament - Suflet pierdut

  • (3 voturi)
  • Contribuție:  anonim125
 [_Intro_]
             Em            C            D             G
E----3-2-3-----------------0-----0-2-3--2-------0-2--------
B------------0-----0---------1------------3---3-------3----
G--------------0-----0---------0------------2-------------- From begining --
D----------------2-----2----------------0------------------                |
A--------------------------3-------------------------------                |
E------------0----------------------------------------3----                |
        ^                                                                  |
        |                                                                  |
        --------------------------------------------------------------------    
 
Repeat 3 times and then play this :
 
            Em        C          D
E--------------------------------2------
B-------1---0--------------------3------
G---2-4-------0-2-4---0-------0--2------
D-------------------------2-4-----------
A---------------------------------------
E-----------0---------3-----------------
 
        Em           C
Doar o clipa sa ma stai as vrea
G            D
Nu te-ndeparta
     Em         C         G        D
Nu fugi de mine,nu,nu,nu,nu ma alunga
        Em            C
Doar o clipa a mai ramas acum 
        G             D
Din noaptea cea mai grea
        Em         C 
Toate's bune numai tu nu esti
 G           D
Durerea s-o topesti
 
[_refren_]

        Em              C
Suflet pierdut prin asternut 
      D             G
Am ramas cu ce-a trecut 
        Em           C
Orele trec, zilele curg
        D              G
Ne-am indepartat prea mult 
        Em               C
Suflet pierdut prin asternut 
       D            G
Am ramas cu ce-a trecut 
        Em              C                  D
Am sa te-astept, am sa te-astept, am sa te-astept
 
[_Verse_2_]
 
        Em              C
Te-as ruga macar la miezul noptii 
    G             D
S-apari in visul meu
        Em              C 
Am atatea lucruri sa iti spun
G               D
Si mi-e tare greu
        Em                 C 
Te-as striga dar stiu ca nu ma auzi 
     G        D
Pe unde ratacesti
        Em           C
Toate-s bune numai tu nu esti 
  G           D
Durerea s-o topesti
 
[_refren_]

        Em      C
Suflet pierdut...
      G                 D  Em  C
Am ramas cu cu ce-a trecut
      G                 D
Ne-am indepartat prea mult
        Em      C
Suflet pierdut...
      G                 D  Em  C
Am ramas cu cu ce-a trecut
      G  (Hold)                 
Ne-am indepartat prea mult
 
[_refren_]