Pasărea Colibri - 2000 de ani - intro

Originala are capodastru pe fretul 2.

Sper sa va placa :)



[---------5-------------------------5----------------------------5------------
[----7--------7----------------5----------5----------------3---------3--------
[----7------------7--------6-----------------6---------4-----------------4----
[----0------------------0---------------------------0-------------------------
[-----------------------------------------------------------------------------
[-----------------------------------------------------------------------------

[-----------------5---------------------5----------5-------------5------------
[------------2-----------------------3-----3-------------3----------3---------
[-------2------------------------0-------------0-------------0-----------0----
[---0------------------------0------------------------------------------------
[-----------------------------------------------------------------------------
[-----------------------------------------------------------------------------

[---------------5------------------------------5-----]
[-----------3------3---------------------3-----------]
[-------2-------------2-------------0----------------]
[---0---------------------------2--------------------]
[---------------------------0------------------------]
[----------------------------------------------------]


http://www.youtube.com/watch?v=4a9lTPn1NYY
  • Stefan the RocKer
    7 decembrie 2009 18:56
    o fi, doar ca a mea difera cu cateva note :)
  • vasib
    6 decembrie 2009 02:27
    Toata transpunerea e de ceva vreme aici: http://tabulaturi.ro/acorduri.php?tab_id=5105