Pasărea Colibri - 2000 de ani (intro)

Fata de alte intro-uri asta e cea corecta.
[--------- ----5---------------5-------------------- 5----------------5----
[----7-----------7------  5-------------3--------------3------2-----------
[----7-----7--------7------6-----------4------4---------4-------2-------
[----0-----------------------------------0----------------------------------
[-----------------------------------------------------------------------------
[-----------------------------------------------------------------------------

[-----------------5---------------------5----------5-------------5----------
[------------2-----------------------3-----3-------------3----------3-------
[-------2------------------------0-------------0-------------0-----------0--
[---0------------------------0------------------------------------------------
[-----------------------------------------------------------------------------
[-----------------------------------------------------------------------------

[---------------5-----------------------------------]
[-----------3------3---------------------3----5---]
[-------2-------------2-------------0--------------]
[---0---------------------------2--------------------]
[---------------------------0------------------------]
[----------------------------------------------------]


Merita incercata. E cea corecta
ea5568b028465376345ba6f108b44e77