Pasărea Colibri - Alcool

Intro:


e|-----0---0-0---|-----0---0-0---|-----0---0-0---|---0--0--|
B|-----1---0-1---|-----1---0-1---|-----1---0-1---|---1--0--|
G|-----2---2-2---|-----2---2-2---|-----2---2-2---|---2--1--|
D|-----2---2-2---|-----2---2-2---|-----2---2-2---|---2--2--|
A|-0-------------|-0-------------|-0-------------|------2--|
E|---------------|---------------|---------------|------x--|

Aici intra chitara a doua cu armonie in baza:

 :*Am*   >     >     >     >     >   *Am*E*
e|--5---8-7-5---5---8-7-5---5---8-7-5---------||
B|------------6-----------6-----------6-6~5~--||
G|--------------------------------------------||
D|--------------------------------------------||
A|--------------------------------------------||
E|--------------------------------------------||

      Am
E-o poveste c-o cadere
A cuiva ce-avea putere
                              E
Intr-o viata prea bogata in pozitii.
Dar cu stresul de la slujba,
Cu-obligatii sociale
                E7       Am  X
Si-o sotie cu fanatice ambitii.
A
S-a pus pe bautura,
S-a-ncurcat c-o taratura
                                      Dm
Ce l-a dus spre-un trai lipsit de interdictii.
           Am
Dar tarfa banii i-a tocat
Si in mocirla l-a lasat
                         E           Am* E* Am*
Un alt betiv in zdrente, ca toti prapaditii.
E7
Vai, ce pacat!

Am        Dm
Oh, demon alcool,
                    Am
N-am amintiri, mi-e capul gol.
        E
Cine-ar fi crezut
           Am
Ca din om ajung ne-om.
Am        Dm
Oh, demon alcool,
                    Am
N-am amintiri, mi-e capul gol.
       E
Lipsit de control,
            Am  E  Am
Sclav la demonul alcool.

*****
Aici se repeta armoniile de sus, dar chitara a doua 
arpegiaza acordurile prinse in rasturnare...
*****

Inc-un vin ori gin,
El bea ce putea,
Spirt, tuica, sus paharul,
Rom, scotch, vodca din import,
Atata timp cat isi ineaca-n ele-amarul.
Dar era un om pierdut, cand nevasta si-a batut,
Tarfa a plecat si si-a gasit un altul.
Ea-l indemna mereu sa bea,
Ea spre ruina il ducea,
Dar banii cand s-au dus,
L-a si lasat prin santuri.
Vai, ce pacat!

Oh, demon alcool,
N-am amintiri, mi-e capul gol.
Cine-ar fi crezut
Ca din om ajung ne-om.
N-am amintiri, mi-e capul gol.
Lipsït de control,
Sclav la demonul alcool.