Pasărea Colibri - Cantec soptit (ciupitura)

  • (11 voturi)
  • Contribuție:  ceac-pac
  • Ultima actualizare: 08.05.2010
Ciupitura se face astfel: Pentru fiecare acord, mai intai loviti cu degetul
 mare coarda de bas a acordului respectiv(Pentru D->coarda 4; pentru 
G->coarda 6; pentru A->coarda 5).Apoi loviti corzile 3,2,3,1,2,3,2. Pentru 
coarda 3 folositi degetul aratator, pentru coarda 2,mijlociul, iar pentru 
coarda 1, inelarul.

            D                   G                   A
e||----------2-------------------3--------------------0---------
B||------3-----3---3---------0-----0---0----------2-----2---2---
G||----2---2-----2---------0---0-----0----------2---2-----2-----
D||--0----------------------------------------------------------
A||------------------------------------------0------------------
E||---------------------3---------------------------------------

====================================================================
====================================================================
            D                   D                  G               
e||----------2-------------------2------------------3---------
B||------3-----3---3---------3-----3---3--------0-----0---0---
G||----2---2-----2---------2---2-----2--------0---0-----0-----
D||---0------------------0------------------------------------
A||-----------------------------------------------------------
E||----------------------------------------3------------------

        Odata           am          ucis   .   .    .    .   . 

              
            D                   D                  D
e||----------2-------------------2------------------2---------
B||------3-----3---3---------3-----3---3--------3-----3---3---
G||----2---2-----2---------2---2-----2--------2---2-----2-----
D||---0------------------0-------------------0----------------
A||-----------------------------------------------------------
E||-----------------------------------------------------------
      o       vrabie.    Am    tras    cu    prastia-n  ea si-am

  

              A                 A                      G        
e||----------0-------------------0---------------------3---------
B||------2-----2---2---------2-----2---2-----------0-----0---0---
G||----2---2-----2---------2---2-----2-----------0---0-----0-----
D||--------------------------------------------------------------
A||-0------------------0-----------------------------------------
E||--------------------------------------------3-----------------
      looovit-oooo                             Pe     urma    o....


SI ASA MAI DEPARTE... SUCCES!!



D               G    D
Odata am ucis ...  o vrabie.
                                A
Am tras cu prastia-n ea si-am lovit-o.
G          D   G                D
 Pe urma o zi ... si o noapte intreaga    |
G        A                   D          |  x2
 Am tot plans-o si am tot jelit-o.        |

Nu m-a batut mama, nu m-a certat.
In mana tineam o bucata de paine.
Degeaba mi-a spus, degeaba mai plangi,
Ce-ai omorat, omorat ramane.

Mai tarziu am crescut flacaiandru,
M-am indragostit nebuneste de-o fata.
Nu stiu de ce, intr-o zi a murit
Si-n alta zi a fost ingropata.

De mult nu mai trag cu prastia-n vrabii,
De mult nu mai merg la nici o-ngropare.
Soarele apune dupa niste maguri
Si rasare in flacari din mare.
  • alextrem94
    12 august 2012 14:25
    Foarte buna transpunerea in varianta ciupita!
  • cipri.benq
    11 ianuarie 2012 12:05
    foarte buna transpunerea...si eu o cant in aceeasi varianta si suna extraordinar;)
  • Razyel27
    7 februarie 2010 11:04
    cu ciupitura merge super :) ai facut o treaba buna.
  • madcastor
    9 octombrie 2009 16:25
    una din putinele piese care imi place si cu bataie si cu ciupitura; multumim si pentru varianta asta.