Pasărea Colibri - Intelegere

  • (23 voturi)
  • Contribuție:  anonime
Intro (şi bridge):

    C                       Am7                  G        
     tu-u-u-u.....                                tu-du-du-u-u.... 
E||-----------0-------0-|----------0-------0--|----------3-------3--|
B||-----------1-------1-|----------1-------1--|----------0-------0--|
G||*-------0-------0----|-------0-------0-----|-------0-------0-----|
D||*--------------------|---------------------|---------------------|
A||---3---------------L-|--0---------------L--|---------------------|
E||---------------------|---------------------|--3---------------L--|

Em                        C                       D7
                  ta-ra-ra...                                 ta-ra-
----------3-------3----|----------0-------0----|----------2-------2-|
----------0-------0----|----------1-------1----|----------1-------1-|
-------0-------0-------|-------0-------0-------|-------2-------2----|
-----------------------|-----------------------|--0---------------L-|
-----------------------|--3---------------L----|--------------------|
--0--------------------|-----------------------|--------------------|

ra...                                        Aici incepe versul:
  G                                                 G                  
----------3-------3----|----------3-------3-----||----------3-------3----|
----------0-------0----|----------0-------0-----||----------0-------0----|
-------0-------0-------|-------0-------0-------*||-------0-------0-------|
-----------------------|-----------------------*||-----------------------|
-----------------------|------------------------||-----------------------|
--3---------------L----|--3---------------L-----||--3---------------L----|

                           C                       C          C/B         
   Las lumea să     dispreţuiască
----------3-------3----|----------0-------0----|------------------------|
----------0-------0----|----------1-------1----|-------1----------1-----|
-------0-------0-------|-------0-------0-------|----------0----------0--|
--0---------------L----|-----------------------|------------------------|
-----------------------|--3---------------L----|--3----------2----------|
-----------------------|-----------------------|------------------------|

  Am7                     D7                      G                     
          Ascunsa        taină                 dintre  noi
----------0-------0----|----------2-------2----|----------3-------3----|
----------1-------1----|----------1-------1----|----------0-------0----|
-------0-------0-------|-------2-------2-------|-------0-------0-------|
-----------------------|--0---------------L----|-----------------------|
--0---------------L----|-----------------------|-----------------------|
-----------------------|-----------------------|--3---------------L----|


  G                         C                       Am7                   
                                 Prejude          cata           
----------3-------3----||-----------0-------0----|----------0-------0----|
----------0-------0----||-----------1-------1----|----------1-------1----|
-------0-------0-------||*-------0-------0-------|-------0-------0-------|
-----------------------||*-----------------------|-----------------------|
-----------------------||---3---------------L----|--0---------------L----|
--3---------------L----||------------------------|-----------------------|


  G                       Em                      C                     
 omenească                                              Arunce-n
----------3-------3----|----------3-------3----|----------0-------0----|
----------0-------0----|----------0-------0----|----------1-------1----|
-------0-------0-------|-------0-------0-------|-------0-------0-------|
-----------------------|-----------------------|-----------------------|
-----------------------|-----------------------|--3---------------L----|
--3---------------L----|--0---------------L----|-----------------------|


  D7                      G                                               
  cale-ţi               cu noroi  
----------2-------2----|----------3-------3----|----------3-------3-----||
----------1-------1----|----------0-------0----|----------0-------0-----||
-------2-------2-------|-------0-------0-------|-------0-------0-------*||
--0---------------L----|-----------------------|-----------------------*||
-----------------------|-----------------------|------------------------||
-----------------------|--3---------------L----|--3---------------L-----||

G                  C        C C/B Am7
Las' lumea să dispreţuiască
         D7       G
Ascunsa taină dintre noi
 C      Am7    G     Em
Prejudecata omenească
C         D7         G
Arunce-n cale-ţi cu noroi

C        Am7         G        Em
tu-u-u-u.....    tu-du-du-u-u....
       C     D7    G
ta-ra-ra... ta-ra-ra..

În faţa idolilor lumii
Nu plec genunchii, nu cerşesc
La fel cu tine gândul nu mi-i
Nici să iubesc, nici să urăsc

M-afund fără să caut rostul
În chefuri nici voios nici trist
Vorbesc cu prostul, cu neprostul
Dar pentru sufletu-mi exist

În larma lumii ne-ntâlnirăm
O zi ca orice altă zi
Fără de bucurii iubirăm
Fără tristeţi ne-om despărţi

şi preţuim în viaţa toată
Doar oamenii, atâta tot
Nu ne-om minţi noi niciodată
Nici alţii a-ne minţi nu pot
  • Gigione
    10 aprilie 2011 18:54
    Extraordinar
  • Deedz
    14 octombrie 2009 18:14
    No offence,dar nu prea imi suna bine.... Parca ar suna mai bine asa:
    G C
    Am D G
    C Am G Em
    C D G

    acuma.. eu nu zic sa o modifici.... e ok si asa... dar D7 nu prea imi suna si in loc de Am7
    mie imi suna mai bine Am simplu.. poate nu zic bine,dar mie asa imi suna... apreciez si asa
    cum ai facut-o tu. :)