Pasărea Colibri - Tristeti provinciale

Versuri: George Topârceanu

Capodastru pe III

Intro:

     D            Asus4    D           Asus4 D    Asus4 D     
     ^            v        v  ^  v     ^     ^    ^     ^     
E||--2----x-------5--------2--2--2--|--5-----2----5-----2----|
B||--3----x-------3--------3--3--3--|--3-----3----3-----3----|
G||--2------------2--------2--2--2--|--2-----2----2-----2----|
D||--0------------0--------0--------|--0-----0----0-----0----|
A||---------------------------------|------------------------|
E||---------------------------------|------------------------|


  G            A                D    A    D            
  ^            v    ^  v  ^     ^    v    ^            
--3----x-------0----0--0--0--|--2----0----2----L-----||
--0----x-------2----2--2--2--|--3----2----3----L-----||
--0----x-------2----2--2--2--|--2----2----2----L----*||
--0------------2----2--2--2--|--0----2----0----L----*||
--2------------0-------------|-------0---------------||
--3--------------------------|-----------------------||


D
Lali-lali-lulu
A
Lili-lili-lula
G           D
Lala-lala-lululu
A              D
Lalala-lili-lilula
G          D
Eeeei-lalalululu
A           D  A  D
Lilu-lalulu-lu

D
Tristeţi de după-amezi ploiase
A
şi de nostalgice obsesii
G                       D
Când stai cu storurile trase
A                     D
şi-aştepţi să vie ora mesii
G            A         D    A  D
şi-aştepţi să vie ora mesii

Tristeţi de străzi pustii şi mute
De ziduri vechi şi cu faţade
De edificii cunoscute
În care nu ştii cine şade
În care nu ştii cine şade

De domicilii spaţioase
Cu flori la geam şi cu salon
Din care pe la ceasul şase
Auzi urlând un gramofon
Auzi urlând un gramofon


Lali-lali-lulu
Lili-lili-lula
Lala-lala-lululu
Lalala-lili-lilula
Eeeei-lalalululu
Lilu-lalulu-lu

Bm                    F#m
Tristeţi de goarnă funerară
       G    A    D
Melancolii de căţeluş
Bm                  F#
Uitat de cineva pe-afară
G                     A
Să scheaune pe lângă uşi

Bm                    F#m
Tristeţi romantice de fată
          G   A     D
Cu nasul lung şi demodat
Bm              F#
şi de odaie mobilată
G                    A
În care-a stat un magistra-at

Lali-lali-lulu
Lili-lili-lula
Lala-lala-lululu
Lalala-lili-lilula
Eeeei-lalalululu
Lilu-lalulu-lu

Tristeţi pustii, molipsitoare
De ce mă urmăriţi mereu
şi fie ploaie ori ninsoare
Vă ţineţi scai de capul meu
Vă ţineţi scai de capul meu

A||---0--2--4---|

Lali-lali-lulu
Lili-lili-lula
Lala-lala-lululu
Lalala-lili-lilula
Eeeei-lalalululu
Lilu-lalulu-lu
Lilu-lalulu-lu
Lilu-lalulu-lu
Lilu-lalulu-lu
Lilu-lalulu-lu...