Pasărea Colibri - Un cuvant

  • Contribuție:  anonime
E|-----------------------------------------|
B|--INTRO----------------------------------|
G|-----------------------------------------|
D|------------4~---------------------------|
A|--5-----5-7------2-5~-0-0^2-0------------|
E|----5-7--------5---------------0^2-0-----|

E|--------------------------------------------|
B|-------------------------7-7^9^7------------|
G|-----------------4-7-7^9---------7----9^11^9|
D|-------------4-7----------------------------|
A|--5-----5-7---------------------------------|
E|----5-7-------------------------------------|

E|--..în noaptea cea grea..----------------|
B|-----------------------------------------|
G|-7~--9^11^9~--9^11-7------7-9------------|
D|-------------------------------7-4~~-----|
A|-----------------------------------------|
E|-----------------------------------------|

solo:

E|-----------------------------------------|
B|----SOLO---------------------------------|
G|-7~--9^11^9~--9^11-7------7-9------------|
D|-----------------------------------------|
A|-----------------------------------------|
E|-----------------------------------------|

E|----------------------12-14-12-----------|
B|-5-9-5-7^--------5-7--12-------12--------|
G|----------4-6-6----------------13--------|
D|-----------------------------------------|
A|-----------------------------------------|
E|--AICI SE CINTA MAI SUS CU UN TON--------|

E|--16-19-16-----12-14-12---------------------|
B|--17-------17--12-------12-12b13b12-14-13-9-|
G|------------------------13-----------------9|
D|--------------------------------------------|
A|--------------------------------------------|
E|--LA FEL SI AICI----------------------------|

E|----------------------!--!-!-------|
B|------------------10-10--8-7-!-----|
G|-7-9-11 9-9-7-9--------------9-7-9~|
D|-----------------------------------|
A|--!=EXEC NOTA DE 3 ORI-------------|
E|-----------------------------------|