Pasărea Colibri - Un om pe niste scari

  • (3 voturi)
  • Contribuție:  DDsix
  • Ultima actualizare: 23.09.2010
Pasarea Colibri - Un om pe niste scari

TAB: Daniel Popovici 
EMAIL: nascutobosith@yahoo.com

Sursa versuri: www.versuri.ro
Tabul a fost facut dupa varianta aceasta: http://www.youtube.com/watch?v=8vnJ8GQeRpg 

Tab intro:

In acest intro chitaristul nu face un ciupit exact. Foloseste o bataie deloc complexa, 
deseori fiind facuta pe corzi moarte.
Acordurile de baza folosite sunt:

C:01023X

F:11233X

G:X3455X

La acordul F, incearca sa faci bareul doar pe primele doua corzi.
La acordul G nu este deloc nevoie de bareu. Doar atingi putin coarda E cu degetul
aratator ca sa fie moarta.


e--x-^-|--0-^-|-^--1-|-|-5--3--3--0-x-^-|--0-^-|-^--1-|--x------0-|
b--x-|-|--1-|-|-|--1-|-|-6--3--3--1-x-|-|--1-|-|-|--1-|--3-|-|--1-|
g--x-|-|--0-|-|-|--2-|-|------------x-|-|--0-|-|-|--2-|--4-|-|--0-|
d--x-|-|--2-|-|-|--3-v-v------------x-|-|--2-|-|-|--3-v--5-v-v--2-|
a--x-|-|--3-|-v-|--3----------------x-|-|--3-|-v-|--3----5------3-v
e--x-|-v--X--------X----------------x-|-v--X--------X-----------X--


e--x-^-|--0-^-|-^-|--1-^-5--8---7--3--0
b--x-|-|--1-|-|-|-|--1-|-6--10--8--3--1
g--x-|-|--0-|-|-|-|--2-|---------------
d--x-|-|--2-|-|-|-|--3-|---------------
a--x-|-|--3-|-v-|-v--3-|---------------
e--x-|-v--X----------X-----------------


e-x-^-|--0-^-|-^--1-|--x------0-|-
b-x-|-|--1-|-|-|--1-|--3-|-|--1-|-
g-x-|-|--0-|-|-|--2-|--4-|-|--0-|-
d-x-|-|--2-|-|-|--3-v--5-v-v--2-|-
a-x-|-|--3-|-v-|--3----5------3-v-
e-x-|-v--X--------X-----------X---

Apoi incepe cantecul in sine, unde chitaristul foloseste un ciupit intre intro si versuri.


e----0-------- \
b------1---1--  |
g--------0----  | ori 4 
d-------------  |
a--3-let ring-  | 
e------------- /


Apoi incep versurile, unde ciupitul se schimba putin.

  C         F   G   C           F   G   C   
e---------0-1---3-1-0---------0-1---3-1-0---------
b-------1-------------1-----1-------------1-----1-
g-----0-------2---------0---------2---------0-----
d---2-------3-------------2-----3-------------2---
a-3-----------------3-------------------3--------- 
e------------------------------------------------- ....


Versuri : 

E lumea plina de urmari
Eu sunt un om pe niste scari
În sus ce e? În jos-nimic
În jos ce e? În sus-nimic.

Vorbesc cu ceilalti care-au fost
Si-n sus si-n jos si nu-i dezic
Eu însumi spun de locurile
Pe unde-am fost nu e nimic .

Vecinul meu praseste ciori
Vecina mea praseste farduri
Eu sunt un om pe niste scari
Si-un câine ulucind prin garduri .

O data, de mai multe ori
Caci ce pot fi aceste garduri
Decât cazute foste scari
Decât cazute foste garduri.

Vecine, domnule, straine,
Nu înteleg ce-aveti cu mine
Stiu, scarile ne sunt comune
Dar trec atât de rar pe-aici
Portarul însusi poate spune
Ca am ambitii foarte mici.

Din când în când mai vin pe-acasa
De ce va suparati când vin?
Arare talpa mea apasa
Pedalele cu pas strain.

Vecinul meu praseste ciori
Vecina mea praseste farduri
Abia m-am ridicat din garduri
Si mârâind în joase salturi
Eu sunt un om pe niste scari .

Si daca vreti sa fiu balada
Si fiindca eu nu am o stea
Accept, râvnesc, visez sa cada
Un corb nervos la moartea mea .

Si-acuma va implor zâmbiti
În lumea plina de urmari
Voi care farduri si ciori prasiti
Întunecati si spalaciti
Lasati-ma sa fiu pe scarï!
Na na na Na na