Paula Seling - Timpul (Solistica)

Capo tasta 4

E|--3-----------------3---------------
B|-----6--5--3--5--------6--5--3--5---
G|-----------------5-----------------5
D|------------------------------------
A|------------------------------------
E|------------------------------------

E|----------------------------------------------------
B|-----------------------3----------------------------
G|--2--2--2--2--2--4--5-----5--4--2-------------------
D|-----------------------------------5--2(mentineti)--
A|----------------------------------------------------
E|----------------------------------------------------

E|-----------------------
B|-----------------------
G|-----------------------
D|--0--2--3--2--0--------
A|-----------------3--2--
E|-----------------------