Pavel Stratan - Dudu (intro)

  • (6 voturi)
  • Contribuție:  generalDona
  • Ultima actualizare: 25.04.2008
intro:
|------------------------------------------------------------------|
|------------------------------------------------------------------|
|------------------------------------------------------------------|
|-----------------------------------------2-2------------------2-2-|
|--------------------------0h2-2--0h2-2-2-----2-2-3-3--0h2-2-2-----|
|--3-3-2-2-1-0-0-(0)-(0)-------------------------------------------|

|-------------------------------------------------------------|
|-------------------------------------------------------------|
|--------------------------------2s7-7------------------------|
|-------------------------------------7---0h2-2-5-5-3-3-2-2-0-|
|-2-2-3-3---2h3-3-3-3-2-2-------------------------------------|
|--------------------------5-5--------------------------------|

|--------------------------------------------|
|--------------------------------------------|
|--------------------------------------------|
|-0h2-2-2-2-0--------------------------------|
|-------------2-3-0----2-2-2-0-0-------------|
|--------------------------------4-5---------|
   
Acordurile pe care loveste nu le transcriu pt. ca nu-s sigur deocamdata..
    revin cu ele cand o sa le dibuiesc exact.