Pavel Stratan - Eu beu

  • (2 voturi)
  • Contribuție:  generalDona
  • Ultima actualizare: 03.05.2008
|-------------------------------------------------------------------
|-------------------------------------------------------------------
|-------------------------------------------------------------------
|-------------------------------------------------0-2-0-------------
|--0--0-0-2-3-5-5--5-7-5-3-2-3-5------0-2-3-3--3--------3-2-0-------
|---------------------------------3-3-------------------------------

|------------------------------------------------------------------
|------------------------------------------------------------------
|------------------------------------------------------------------
|-----------------------------0-0-0-2-3-2-2--2-3-2-0---------------
|-0-0-2-3-5-5--5-7-5-3-2-3-5-------------------------3-2-0---------
|------------------------------------------------------------------

  In rifu asta consta toata melodia. Acordurile sunt Am Dm G C si E( multam rasgeado)
 ... Cat despre solo... lucrez la el...
7cff980e9cd23315f1e69150c018fbd9